  0
SECTION
  2
HEADER
  9
$ACADVER
  1
AC1015
  9
$ACADMAINTVER
 70
    20
  9
$DWGCODEPAGE
  3
ANSI_932
  9
$INSBASE
 10
0.0
 20
0.0
 30
0.0
  9
$EXTMIN
 10
153765.6618268021
 20
74218.95823364184
 30
0.0
  9
$EXTMAX
 10
349523.7580704501
 20
150257.5485491196
 30
0.0
  9
$LIMMIN
 10
0.0
 20
0.0
  9
$LIMMAX
 10
420.0
 20
297.0
  9
$ORTHOMODE
 70
     1
  9
$REGENMODE
 70
     1
  9
$FILLMODE
 70
     1
  9
$QTEXTMODE
 70
     0
  9
$MIRRTEXT
 70
     1
  9
$LTSCALE
 40
1.0
  9
$ATTMODE
 70
     1
  9
$TEXTSIZE
 40
2.5
  9
$TRACEWID
 40
1.0
  9
$TEXTSTYLE
  7
Standard
  9
$CLAYER
  8
D-STR-DIM（寸法）
  9
$CELTYPE
  6
Continuous
  9
$CECOLOR
 62
     7
  9
$CELTSCALE
 40
1.0
  9
$DISPSILH
 70
     0
  9
$DIMSCALE
 40
100.0
  9
$DIMASZ
 40
3.0
  9
$DIMEXO
 40
1.5
  9
$DIMDLI
 40
3.5
  9
$DIMRND
 40
0.0
  9
$DIMDLE
 40
0.0
  9
$DIMEXE
 40
1.0
  9
$DIMTP
 40
0.0
  9
$DIMTM
 40
0.0
  9
$DIMTXT
 40
3.5
  9
$DIMCEN
 40
2.0
  9
$DIMTSZ
 40
0.0
  9
$DIMTOL
 70
     0
  9
$DIMLIM
 70
     0
  9
$DIMTIH
 70
     0
  9
$DIMTOH
 70
     0
  9
$DIMSE1
 70
     0
  9
$DIMSE2
 70
     0
  9
$DIMTAD
 70
     1
  9
$DIMZIN
 70
     8
  9
$DIMBLK
  1
OPEN
  9
$DIMASO
 70
     1
  9
$DIMSHO
 70
     1
  9
$DIMPOST
  1

  9
$DIMAPOST
  1

  9
$DIMALT
 70
     0
  9
$DIMALTD
 70
     2
  9
$DIMALTF
 40
0.03937
  9
$DIMLFAC
 40
0.1
  9
$DIMTOFL
 70
     0
  9
$DIMTVP
 40
0.0
  9
$DIMTIX
 70
     0
  9
$DIMSOXD
 70
     0
  9
$DIMSAH
 70
     0
  9
$DIMBLK1
  1

  9
$DIMBLK2
  1

  9
$DIMSTYLE
  2
1-10
  9
$DIMCLRD
 70
     7
  9
$DIMCLRE
 70
     7
  9
$DIMCLRT
 70
     7
  9
$DIMTFAC
 40
1.0
  9
$DIMGAP
 40
1.0
  9
$DIMJUST
 70
     0
  9
$DIMSD1
 70
     0
  9
$DIMSD2
 70
     0
  9
$DIMTOLJ
 70
     1
  9
$DIMTZIN
 70
     0
  9
$DIMALTZ
 70
     0
  9
$DIMALTTZ
 70
     0
  9
$DIMUPT
 70
     0
  9
$DIMDEC
 70
     0
  9
$DIMTDEC
 70
     0
  9
$DIMALTU
 70
     2
  9
$DIMALTTD
 70
     2
  9
$DIMTXSTY
  7
ＭＳ ゴシック
  9
$DIMAUNIT
 70
     0
  9
$DIMADEC
 70
     0
  9
$DIMALTRND
 40
0.0
  9
$DIMAZIN
 70
     0
  9
$DIMDSEP
 70
    46
  9
$DIMATFIT
 70
     3
  9
$DIMFRAC
 70
     0
  9
$DIMLDRBLK
  1
OPEN
  9
$DIMLUNIT
 70
     2
  9
$DIMLWD
 70
     5
  9
$DIMLWE
 70
     5
  9
$DIMTMOVE
 70
     2
  9
$LUNITS
 70
     2
  9
$LUPREC
 70
     4
  9
$SKETCHINC
 40
1.0
  9
$FILLETRAD
 40
25.0
  9
$AUNITS
 70
     0
  9
$AUPREC
 70
     0
  9
$MENU
  1
.
  9
$ELEVATION
 40
0.0
  9
$PELEVATION
 40
0.0
  9
$THICKNESS
 40
0.0
  9
$LIMCHECK
 70
     0
  9
$CHAMFERA
 40
10.0
  9
$CHAMFERB
 40
10.0
  9
$CHAMFERC
 40
20.0
  9
$CHAMFERD
 40
0.0
  9
$SKPOLY
 70
     0
  9
$TDCREATE
 40
2452325.474625463
  9
$TDUCREATE
 40
2452325.099625463
  9
$TDUPDATE
 40
2455997.681445313
  9
$TDUUPDATE
 40
2455997.306445313
  9
$TDINDWG
 40
0.3370468056
  9
$TDUSRTIMER
 40
0.3370462731
  9
$USRTIMER
 70
     1
  9
$ANGBASE
 50
0.0
  9
$ANGDIR
 70
     0
  9
$PDMODE
 70
     0
  9
$PDSIZE
 40
0.0
  9
$PLINEWID
 40
0.0
  9
$SPLFRAME
 70
     0
  9
$SPLINETYPE
 70
     6
  9
$SPLINESEGS
 70
     8
  9
$HANDSEED
  5
27B26
  9
$SURFTAB1
 70
     6
  9
$SURFTAB2
 70
     6
  9
$SURFTYPE
 70
     6
  9
$SURFU
 70
     6
  9
$SURFV
 70
     6
  9
$UCSBASE
  2

  9
$UCSNAME
  2

  9
$UCSORG
 10
0.0
 20
0.0
 30
0.0
  9
$UCSXDIR
 10
1.0
 20
0.0
 30
0.0
  9
$UCSYDIR
 10
0.0
 20
1.0
 30
0.0
  9
$UCSORTHOREF
  2

  9
$UCSORTHOVIEW
 70
     0
  9
$UCSORGTOP
 10
0.0
 20
0.0
 30
0.0
  9
$UCSORGBOTTOM
 10
0.0
 20
0.0
 30
0.0
  9
$UCSORGLEFT
 10
0.0
 20
0.0
 30
0.0
  9
$UCSORGRIGHT
 10
0.0
 20
0.0
 30
0.0
  9
$UCSORGFRONT
 10
0.0
 20
0.0
 30
0.0
  9
$UCSORGBACK
 10
0.0
 20
0.0
 30
0.0
  9
$PUCSBASE
  2

  9
$PUCSNAME
  2

  9
$PUCSORG
 10
0.0
 20
0.0
 30
0.0
  9
$PUCSXDIR
 10
1.0
 20
0.0
 30
0.0
  9
$PUCSYDIR
 10
0.0
 20
1.0
 30
0.0
  9
$PUCSORTHOREF
  2

  9
$PUCSORTHOVIEW
 70
     0
  9
$PUCSORGTOP
 10
0.0
 20
0.0
 30
0.0
  9
$PUCSORGBOTTOM
 10
0.0
 20
0.0
 30
0.0
  9
$PUCSORGLEFT
 10
0.0
 20
0.0
 30
0.0
  9
$PUCSORGRIGHT
 10
0.0
 20
0.0
 30
0.0
  9
$PUCSORGFRONT
 10
0.0
 20
0.0
 30
0.0
  9
$PUCSORGBACK
 10
0.0
 20
0.0
 30
0.0
  9
$USERI1
 70
     0
  9
$USERI2
 70
     0
  9
$USERI3
 70
     0
  9
$USERI4
 70
     0
  9
$USERI5
 70
     0
  9
$USERR1
 40
0.0
  9
$USERR2
 40
0.0
  9
$USERR3
 40
0.0
  9
$USERR4
 40
0.0
  9
$USERR5
 40
0.0
  9
$WORLDVIEW
 70
     1
  9
$SHADEDGE
 70
     3
  9
$SHADEDIF
 70
    70
  9
$TILEMODE
 70
     1
  9
$MAXACTVP
 70
    48
  9
$PINSBASE
 10
0.0
 20
0.0
 30
0.0
  9
$PLIMCHECK
 70
     0
  9
$PEXTMIN
 10
1.000000000000000E+20
 20
1.000000000000000E+20
 30
1.000000000000000E+20
  9
$PEXTMAX
 10
-1.000000000000000E+20
 20
-1.000000000000000E+20
 30
-1.000000000000000E+20
  9
$PLIMMIN
 10
0.0
 20
0.0
  9
$PLIMMAX
 10
420.0
 20
297.0
  9
$UNITMODE
 70
     0
  9
$VISRETAIN
 70
     1
  9
$PLINEGEN
 70
     0
  9
$PSLTSCALE
 70
     1
  9
$TREEDEPTH
 70
  3020
  9
$CMLSTYLE
  2
Standard
  9
$CMLJUST
 70
     0
  9
$CMLSCALE
 40
20.0
  9
$PROXYGRAPHICS
 70
     1
  9
$MEASUREMENT
 70
     1
  9
$CELWEIGHT
370
    -1
  9
$ENDCAPS
280
     0
  9
$JOINSTYLE
280
     0
  9
$LWDISPLAY
290
     0
  9
$INSUNITS
 70
     4
  9
$HYPERLINKBASE
  1

  9
$STYLESHEET
  1
MONOCHROME.CTB
  9
$XEDIT
290
     1
  9
$CEPSNTYPE
380
     0
  9
$PSTYLEMODE
290
     1
  9
$FINGERPRINTGUID
  2
{17C1B300-252B-11D6-BD26-00004C474BFD}
  9
$VERSIONGUID
  2
{F27D8F8C-C0CB-4367-B765-DD2875E7BFFF}
  9
$EXTNAMES
290
     1
  9
$PSVPSCALE
 40
0.0
  9
$OLESTARTUP
290
     0
  0
ENDSEC
  0
SECTION
  2
CLASSES
  0
CLASS
  1
ACDBDICTIONARYWDFLT
  2
AcDbDictionaryWithDefault
  3
ObjectDBX Classes
 90
        0
280
     0
281
     0
  0
CLASS
  1
ACDBPLACEHOLDER
  2
AcDbPlaceHolder
  3
ObjectDBX Classes
 90
        0
280
     0
281
     0
  0
CLASS
  1
LAYOUT
  2
AcDbLayout
  3
ObjectDBX Classes
 90
        0
280
     0
281
     0
  0
CLASS
  1
DICTIONARYVAR
  2
AcDbDictionaryVar
  3
ObjectDBX Classes
 90
        0
280
     0
281
     0
  0
CLASS
  1
SORTENTSTABLE
  2
AcDbSortentsTable
  3
ObjectDBX Classes
 90
        0
280
     0
281
     0
  0
ENDSEC
  0
SECTION
  2
TABLES
  0
TABLE
  2
VPORT
  5
8
330
0
100
AcDbSymbolTable
 70
     2
  0
VPORT
  5
27B1C
330
8
100
AcDbSymbolTableRecord
100
AcDbViewportTableRecord
  2
*Active
 70
     0
 10
0.0
 20
0.0
 11
1.0
 21
1.0
 12
256649.7815070172
 22
124320.9931589633
 13
0.0
 23
0.0
 14
10.0
 24
10.0
 15
10.0
 25
10.0
 16
0.0
 26
0.0
 36
1.0
 17
0.0
 27
0.0
 37
0.0
 40
283912.195934171
 41
1.355661881977671
 42
50.0
 43
0.0
 44
0.0
 50
0.0
 51
0.0
 71
     0
 72
   100
 73
     1
 74
     0
 75
     0
 76
     0
 77
     0
 78
     0
281
     0
 65
     1
110
0.0
120
0.0
130
0.0
111
1.0
121
0.0
131
0.0
112
0.0
122
1.0
132
0.0
 79
     0
146
0.0
  0
ENDTAB
  0
TABLE
  2
LTYPE
  5
5
330
0
100
AcDbSymbolTable
 70
     1
  0
LTYPE
  5
14
330
5
100
AcDbSymbolTableRecord
100
AcDbLinetypeTableRecord
  2
ByBlock
 70
     0
  3

 72
    65
 73
     0
 40
0.0
  0
LTYPE
  5
15
330
5
100
AcDbSymbolTableRecord
100
AcDbLinetypeTableRecord
  2
ByLayer
 70
     0
  3

 72
    65
 73
     0
 40
0.0
  0
LTYPE
  5
16
330
5
100
AcDbSymbolTableRecord
100
AcDbLinetypeTableRecord
  2
Continuous
 70
     0
  3
Solid line
 72
    65
 73
     0
 40
0.0
  0
ENDTAB
  0
TABLE
  2
LAYER
  5
2
102
{ACAD_XDICTIONARY
360
118F2
102
}
330
0
100
AcDbSymbolTable
 70
    10
  0
LAYER
  5
10
330
2
100
AcDbSymbolTableRecord
100
AcDbLayerTableRecord
  2
0
 70
     0
 62
     9
  6
Continuous
370
    -3
390
F
  0
LAYER
  5
78
330
2
100
AcDbSymbolTableRecord
100
AcDbLayerTableRecord
  2
DEFPOINTS
 70
     0
 62
     8
  6
Continuous
290
     0
370
    -3
390
F
  0
LAYER
  5
2697A
330
2
100
AcDbSymbolTableRecord
100
AcDbLayerTableRecord
  2
D-STR-STR1（構造物）
 70
     0
 62
     6
  6
Continuous
370
    25
390
F
  0
LAYER
  5
26981
330
2
100
AcDbSymbolTableRecord
100
AcDbLayerTableRecord
  2
D-TTL(外枠）
 70
     0
 62
     2
  6
Continuous
370
    -3
390
F
  0
LAYER
  5
26982
330
2
100
AcDbSymbolTableRecord
100
AcDbLayerTableRecord
  2
D-STR（構造物外形線）
 70
     0
 62
     1
  6
Continuous
370
    50
390
F
  0
LAYER
  5
26983
330
2
100
AcDbSymbolTableRecord
100
AcDbLayerTableRecord
  2
D-TTL-TXT（文字）
 70
     0
 62
     7
  6
Continuous
370
    -3
390
F
  0
LAYER
  5
26984
330
2
100
AcDbSymbolTableRecord
100
AcDbLayerTableRecord
  2
D-STR-DIM（寸法）
 70
     0
 62
     7
  6
Continuous
370
    25
390
F
  0
LAYER
  5
26985
330
2
100
AcDbSymbolTableRecord
100
AcDbLayerTableRecord
  2
D-STR-HTXT（旗揚げ）
 70
     0
 62
     7
  6
Continuous
370
    25
390
F
  0
LAYER
  5
26987
330
2
100
AcDbSymbolTableRecord
100
AcDbLayerTableRecord
  2
D-STR-TXT（文字）
 70
     0
 62
     7
  6
Continuous
370
    25
390
F
  0
LAYER
  5
26988
330
2
100
AcDbSymbolTableRecord
100
AcDbLayerTableRecord
  2
D-STR-STRn（構造物）
 70
     0
 62
     7
  6
Continuous
370
    25
390
F
  0
ENDTAB
  0
TABLE
  2
STYLE
  5
3
330
0
100
AcDbSymbolTable
 70
     2
  0
STYLE
  5
11
330
3
100
AcDbSymbolTableRecord
100
AcDbTextStyleTableRecord
  2
Standard
 70
     0
 40
0.0
 41
1.0
 50
0.0
 71
     0
 42
2.5
  3
MS Gothic.ttf
  4

1001
ACAD
1000
MS Gothic
1071
    32817
  0
STYLE
  5
26989
330
3
100
AcDbSymbolTableRecord
100
AcDbTextStyleTableRecord
  2
ＭＳ ゴシック
 70
     0
 40
0.0
 41
1.0
 50
0.0
 71
     0
 42
2.5
  3
MS Gothic.ttf
  4

1001
ACAD
1000
MS Gothic
1071
      256
1001
SXFTrans.arx
1000
SXF_FONT_NAME
1002
{
1000
1
1000
ＭＳ ゴシック
1000
1
1000
ＭＳ ゴシック
1000
1
1000
ＭＳ ゴシック
1002
}
  0
ENDTAB
  0
TABLE
  2
VIEW
  5
6
330
0
100
AcDbSymbolTable
 70
     0
  0
ENDTAB
  0
TABLE
  2
UCS
  5
7
330
0
100
AcDbSymbolTable
 70
     0
  0
ENDTAB
  0
TABLE
  2
APPID
  5
9
330
0
100
AcDbSymbolTable
 70
     3
  0
APPID
  5
12
330
9
100
AcDbSymbolTableRecord
100
AcDbRegAppTableRecord
  2
ACAD
 70
     0
  0
APPID
  5
2698B
330
9
100
AcDbSymbolTableRecord
100
AcDbRegAppTableRecord
  2
SXFTrans.arx
 70
     0
  0
APPID
  5
2698C
330
9
100
AcDbSymbolTableRecord
100
AcDbRegAppTableRecord
  2
AcAecLayerStandard
 70
     0
  0
ENDTAB
  0
TABLE
  2
DIMSTYLE
  5
A
330
0
100
AcDbSymbolTable
 70
     4
100
AcDbDimStyleTable
 71
     1
340
25089
  0
DIMSTYLE
105
1D9B
330
A
100
AcDbSymbolTableRecord
100
AcDbDimStyleTableRecord
  2
STANDARD
 70
     0
289
     0
340
11
  0
DIMSTYLE
105
25089
330
A
100
AcDbSymbolTableRecord
100
AcDbDimStyleTableRecord
  2
1-10
 70
     0
 40
100.0
 41
3.0
 42
1.5
 43
3.5
 44
1.0
 73
     0
 74
     0
 77
     1
 78
     8
140
3.5
141
2.0
143
0.03937
144
0.1
147
1.0
176
     7
177
     7
178
     7
271
     0
272
     0
279
     2
340
26989
341
66
342
66
371
     5
372
     5
  0
ENDTAB
  0
TABLE
  2
BLOCK_RECORD
  5
1
330
0
100
AcDbSymbolTable
 70
     5
  0
BLOCK_RECORD
  5
1F
102
{ACAD_XDICTIONARY
360
2C
102
}
330
1
100
AcDbSymbolTableRecord
100
AcDbBlockTableRecord
  2
*Model_Space
340
22
  0
BLOCK_RECORD
  5
1B
102
{ACAD_XDICTIONARY
360
2E
102
}
330
1
100
AcDbSymbolTableRecord
100
AcDbBlockTableRecord
  2
*Paper_Space
340
1E
  0
BLOCK_RECORD
  5
23
102
{ACAD_XDICTIONARY
360
30
102
}
330
1
100
AcDbSymbolTableRecord
100
AcDbBlockTableRecord
  2
*Paper_Space0
340
26
  0
BLOCK_RECORD
  5
66
330
1
100
AcDbSymbolTableRecord
100
AcDbBlockTableRecord
  2
_OPEN
340
0
102
{BLKREFS
331
269E8
331
269E9
102
}
  0
ENDTAB
  0
ENDSEC
  0
SECTION
  2
BLOCKS
  0
BLOCK
  5
20
330
1F
100
AcDbEntity
  8
0
100
AcDbBlockBegin
  2
*Model_Space
 70
     0
 10
0.0
 20
0.0
 30
0.0
  3
*Model_Space
  1

  0
ENDBLK
  5
21
330
1F
100
AcDbEntity
  8
0
100
AcDbBlockEnd
  0
BLOCK
  5
1C
330
1B
100
AcDbEntity
 67
     1
  8
0
100
AcDbBlockBegin
  2
*Paper_Space
 70
     0
 10
0.0
 20
0.0
 30
0.0
  3
*Paper_Space
  1

  0
ENDBLK
  5
1D
330
1B
100
AcDbEntity
 67
     1
  8
0
100
AcDbBlockEnd
  0
BLOCK
  5
24
330
23
100
AcDbEntity
  8
0
100
AcDbBlockBegin
  2
*Paper_Space0
 70
     0
 10
0.0
 20
0.0
 30
0.0
  3
*Paper_Space0
  1

  0
ENDBLK
  5
25
330
23
100
AcDbEntity
  8
0
100
AcDbBlockEnd
  0
BLOCK
  5
6A
330
66
100
AcDbEntity
  8
0
 48
10.0
100
AcDbBlockBegin
  2
_OPEN
 70
     0
 10
0.0
 20
0.0
 30
0.0
  3
_OPEN
  1

  0
LINE
  5
67
330
66
100
AcDbEntity
  8
0
  6
ByBlock
 62
     0
 48
10.0
100
AcDbLine
 10
-1.0
 20
0.1666666666666666
 30
0.0
 11
0.0
 21
0.0
 31
0.0
  0
LINE
  5
68
330
66
100
AcDbEntity
  8
0
  6
ByBlock
 62
     0
 48
10.0
100
AcDbLine
 10
0.0
 20
0.0
 30
0.0
 11
-1.0
 21
-0.1666666666666666
 31
0.0
  0
LINE
  5
69
330
66
100
AcDbEntity
  8
0
  6
ByBlock
 62
     0
 48
10.0
100
AcDbLine
 10
0.0
 20
0.0
 30
0.0
 11
-1.0
 21
0.0
 31
0.0
  0
ENDBLK
  5
6B
330
66
100
AcDbEntity
  8
0
 48
10.0
100
AcDbBlockEnd
  0
ENDSEC
  0
SECTION
  2
ENTITIES
  0
LINE
  5
164CC
330
1F
100
AcDbEntity
  8
D-TTL(外枠）
  6
Continuous
 62
     2
100
AcDbLine
 10
189685.4199268019
 20
99523.17423364192
 30
0.0
 11
189685.4199268019
 21
74218.95823364184
 31
0.0
  0
LINE
  5
164CD
330
1F
100
AcDbEntity
  8
D-TTL(外枠）
  6
Continuous
 62
     2
100
AcDbLine
 10
153765.6618268021
 20
99523.17423364192
 30
0.0
 11
153765.6618268021
 21
74218.95823364184
 31
0.0
  0
LINE
  5
164D0
330
1F
100
AcDbEntity
  8
D-STR（構造物外形線）
  6
Continuous
 62
     1
100
AcDbLine
 10
160928.9421268019
 20
80251.82338364182
 30
0.0
 11
162593.3890268022
 21
80251.82338364182
 31
0.0
  0
LINE
  5
164D1
330
1F
100
AcDbEntity
  8
D-STR（構造物外形線）
  6
Continuous
 62
     1
100
AcDbLine
 10
162593.3890268022
 20
80001.82338364183
 30
0.0
 11
160928.9421268019
 21
80001.82338364183
 31
0.0
  0
LINE
  5
164D2
330
1F
100
AcDbEntity
  8
D-STR（構造物外形線）
  6
Continuous
 62
     1
100
AcDbLine
 10
162593.3890268022
 20
80041.82338364191
 30
0.0
 11
160928.9421268019
 21
80041.82338364191
 31
0.0
  0
LINE
  5
164D3
330
1F
100
AcDbEntity
  8
D-STR（構造物外形線）
  6
Continuous
 62
     1
100
AcDbLine
 10
162593.3890268022
 20
80201.82338364184
 30
0.0
 11
160928.9421268019
 21
80201.82338364184
 31
0.0
  0
TEXT
  5
164D5
330
1F
100
AcDbEntity
  8
D-TTL-TXT（文字）
  6
Continuous
 62
     7
100
AcDbText
 10
161118.3927268024
 20
76787.54488364191
 30
0.0
 40
500.0
  1
正面図
  7
ＭＳ ゴシック
100
AcDbText
  0
LINE
  5
164D6
330
1F
100
AcDbEntity
  8
D-STR（構造物外形線）
  6
Continuous
 62
     1
100
AcDbLine
 10
157561.1655768026
 20
79651.82338364184
 30
0.0
 11
163261.1655768026
 21
79651.82338364184
 31
0.0
  0
LINE
  5
164D7
330
1F
100
AcDbEntity
  8
D-TTL(外枠）
  6
Continuous
 62
     2
100
AcDbLine
 10
153765.6618268021
 20
74218.95823364184
 30
0.0
 11
189685.4199268019
 21
74218.95823364184
 31
0.0
  0
LINE
  5
1650A
330
1F
100
AcDbEntity
  8
D-STR-HTXT（旗揚げ）
  6
Continuous
 62
     7
100
AcDbLine
 10
160871.4388768016
 20
83052.92823364187
 30
0.0
 11
162051.8815565573
 21
83052.92823364187
 31
0.0
  0
TEXT
  5
1650B
330
1F
100
AcDbEntity
  8
D-STR-TXT（文字）
  6
Continuous
 62
     7
100
AcDbText
 10
160921.439626802
 20
83102.92788364201
 30
0.0
 40
400.0
  1
目地
  7
ＭＳ ゴシック
100
AcDbText
  0
LINE
  5
1650C
330
1F
100
AcDbEntity
  8
D-STR-HTXT（旗揚げ）
  6
Continuous
 62
     7
100
AcDbLine
 10
160331.380526802
 20
82198.59868364192
 30
0.0
 11
160390.8512768017
 21
82389.55213364185
 31
0.0
  0
LINE
  5
1650D
330
1F
100
AcDbEntity
  8
D-STR-HTXT（旗揚げ）
  6
Continuous
 62
     7
100
AcDbLine
 10
160331.380526802
 20
82198.59868364192
 30
0.0
 11
160478.3604768019
 21
82334.23388364188
 31
0.0
  0
LINE
  5
1650E
330
1F
100
AcDbEntity
  8
D-STR（構造物外形線）
  6
Continuous
 62
     1
100
AcDbLine
 10
160461.1655768026
 20
80251.82338364182
 30
0.0
 11
160928.9421268019
 21
80251.82338364182
 31
0.0
  0
LINE
  5
1650F
330
1F
100
AcDbEntity
  8
D-STR（構造物外形線）
  6
Continuous
 62
     1
100
AcDbLine
 10
160261.1655768026
 20
79651.82338364184
 30
0.0
 11
159868.062126802
 21
80044.92683364189
 31
0.0
  0
ARC
  5
16511
330
1F
100
AcDbEntity
  8
D-STR（構造物外形線）
  6
Continuous
 62
     1
100
AcDbCircle
 10
160928.9421268019
 20
80751.82338364184
 30
0.0
 40
500.0
100
AcDbArc
 50
183.8140749999804
 51
270.0
  0
LINE
  5
16512
330
1F
100
AcDbEntity
  8
D-STR（構造物外形線）
  6
Continuous
 62
     1
100
AcDbLine
 10
160430.0495268022
 20
80718.56388364185
 30
0.0
 11
160461.1655768026
 21
80251.82338364182
 31
0.0
  0
ARC
  5
16513
330
1F
100
AcDbEntity
  8
D-STR（構造物外形線）
  6
Continuous
 62
     1
100
AcDbCircle
 10
160928.9421268019
 20
80751.82338364184
 30
0.0
 40
750.0
100
AcDbArc
 50
183.8140749999804
 51
270.0
  0
ARC
  5
16515
330
1F
100
AcDbEntity
  8
D-STR（構造物外形線）
  6
Continuous
 62
     1
100
AcDbCircle
 10
160928.9421268019
 20
80751.82338364184
 30
0.0
 40
710.0
100
AcDbArc
 50
183.8140749999804
 51
270.0
  0
ARC
  5
16516
330
1F
100
AcDbEntity
  8
D-STR（構造物外形線）
  6
Continuous
 62
     1
100
AcDbCircle
 10
160928.9421268019
 20
80751.82338364184
 30
0.0
 40
550.0
100
AcDbArc
 50
183.8140749999804
 51
270.0
  0
LINE
  5
16517
330
1F
100
AcDbEntity
  8
D-STR（構造物外形線）
  6
Continuous
 62
     1
100
AcDbLine
 10
160261.1655768026
 20
83251.82338364184
 30
0.0
 11
160430.0495268022
 21
80718.56388364185
 31
0.0
  0
LINE
  5
16518
330
1F
100
AcDbEntity
  8
D-STR（構造物外形線）
  6
Continuous
 62
     1
100
AcDbLine
 10
159761.1655768026
 20
83251.82338364184
 30
0.0
 11
159868.062126802
 21
80044.92683364189
 31
0.0
  0
LINE
  5
16519
330
1F
100
AcDbEntity
  8
D-STR（構造物外形線）
  6
Continuous
 62
     1
100
AcDbLine
 10
160180.6032268018
 20
80701.93413364187
 30
0.0
 11
160010.6106268017
 21
83251.82338364184
 31
0.0
  0
LINE
  5
1651A
330
1F
100
AcDbEntity
  8
D-STR（構造物外形線）
  6
Continuous
 62
     1
100
AcDbLine
 10
160220.5146268017
 20
80704.59488364187
 30
0.0
 11
160050.5220268016
 21
83254.48413364183
 31
0.0
  0
LINE
  5
1651B
330
1F
100
AcDbEntity
  8
D-STR（構造物外形線）
  6
Continuous
 62
     1
100
AcDbLine
 10
160380.1602768021
 20
80715.23793364185
 30
0.0
 11
160211.2763268019
 21
83248.49743364184
 31
0.0
  0
LINE
  5
1651C
330
1F
100
AcDbEntity
  8
D-STR-HTXT（旗揚げ）
  6
Continuous
 62
     7
100
AcDbLine
 10
160331.380526802
 20
82198.59868364192
 30
0.0
 11
160871.4388768016
 21
83052.92823364187
 31
0.0
  0
LINE
  5
1651D
330
1F
100
AcDbEntity
  8
D-STR（構造物外形線）
  6
Continuous
 62
     1
100
AcDbLine
 10
157561.1655768026
 20
79651.82338364184
 30
0.0
 11
157168.062126802
 21
80044.92683364189
 31
0.0
  0
LINE
  5
1651E
330
1F
100
AcDbEntity
  8
D-STR（構造物外形線）
  6
Continuous
 62
     1
100
AcDbLine
 10
157561.1655768026
 20
83251.82338364184
 30
0.0
 11
157761.1655768026
 21
80251.82338364182
 31
0.0
  0
LINE
  5
1651F
330
1F
100
AcDbEntity
  8
D-STR（構造物外形線）
  6
Continuous
 62
     1
100
AcDbLine
 10
157061.1655768026
 20
83251.82338364184
 30
0.0
 11
157168.062126802
 21
80044.92683364189
 31
0.0
  0
LINE
  5
16520
330
1F
100
AcDbEntity
  8
D-STR（構造物外形線）
  6
Continuous
 62
     1
100
AcDbLine
 10
157061.1655768026
 20
83251.82338364184
 30
0.0
 11
160261.1655768026
 21
83251.82338364184
 31
0.0
  0
LINE
  5
16521
330
1F
100
AcDbEntity
  8
D-STR（構造物外形線）
  6
Continuous
 62
     1
100
AcDbLine
 10
160928.9421268019
 20
80251.82338364182
 30
0.0
 11
157761.1655768026
 21
80251.82338364182
 31
0.0
  0
LINE
  5
1654D
330
1F
100
AcDbEntity
  8
D-STR（構造物外形線）
  6
Continuous
 62
     1
100
AcDbLine
 10
180417.2095268024
 20
83251.82338364184
 30
0.0
 11
170417.2095268023
 21
83251.82338364184
 31
0.0
  0
LINE
  5
1654E
330
1F
100
AcDbEntity
  8
D-STR（構造物外形線）
  6
Continuous
 62
     1
100
AcDbLine
 10
180417.2095268024
 20
79651.82338364184
 30
0.0
 11
170417.2095268023
 21
79651.82338364184
 31
0.0
  0
LINE
  5
1654F
330
1F
100
AcDbEntity
  8
D-STR（構造物外形線）
  6
Continuous
 62
     1
100
AcDbLine
 10
180417.2095268024
 20
80251.82338364182
 30
0.0
 11
170417.2095268023
 21
80251.82338364182
 31
0.0
  0
TEXT
  5
16551
330
1F
100
AcDbEntity
  8
D-TTL-TXT（文字）
  6
Continuous
 62
     7
100
AcDbText
 10
174528.1144268021
 20
86919.87990846985
 30
0.0
 40
500.0
  1
平面図
  7
ＭＳ ゴシック
100
AcDbText
  0
TEXT
  5
16552
330
1F
100
AcDbEntity
  8
D-STR-TXT（文字）
 62
     7
100
AcDbText
 10
173793.8956768021
 20
83949.03138364188
 30
0.0
 40
350.0
  1
階段
  7
ＭＳ ゴシック
100
AcDbText
  0
LINE
  5
16553
330
1F
100
AcDbEntity
  8
D-STR-HTXT（旗揚げ）
  6
Continuous
 62
     7
100
AcDbLine
 10
175000.1281768021
 20
83899.03138364186
 30
0.0
 11
173729.0344935274
 21
83899.03138364186
 31
0.0
  0
LINE
  5
16554
330
1F
100
AcDbEntity
  8
D-STR-HTXT（旗揚げ）
  6
Continuous
 62
     7
100
AcDbLine
 10
176705.670676802
 20
80337.71703364191
 30
0.0
 11
176668.9142268025
 21
80534.3104336419
 31
0.0
  0
LINE
  5
16555
330
1F
100
AcDbEntity
  8
D-STR-HTXT（旗揚げ）
  6
Continuous
 62
     7
100
AcDbLine
 10
176705.670676802
 20
80337.71703364191
 30
0.0
 11
176575.5419768017
 21
80489.59368364187
 31
0.0
  0
LINE
  5
16556
330
1F
100
AcDbEntity
  8
D-STR-HTXT（旗揚げ）
  6
Continuous
 62
     7
100
AcDbLine
 10
176705.670676802
 20
80337.71703364191
 30
0.0
 11
175000.1281768021
 21
83899.03138364186
 31
0.0
  0
TEXT
  5
16557
330
1F
100
AcDbEntity
  8
D-TTL-TXT（文字）
  6
Continuous
 62
     7
100
AcDbText
 10
174636.6251768022
 20
76787.54488364191
 30
0.0
 40
500.0
  1
Ａ－Ａ断面図
  7
ＭＳ ゴシック
100
AcDbText
  0
LINE
  5
1655A
330
1F
100
AcDbEntity
  8
D-STR（構造物外形線）
  6
Continuous
 62
     1
100
AcDbLine
 10
170417.2095268023
 20
83251.82338364184
 30
0.0
 11
170417.2095268023
 21
79651.82338364184
 31
0.0
  0
LINE
  5
1655C
330
1F
100
AcDbEntity
  8
D-STR（構造物外形線）
  6
Continuous
 62
     1
100
AcDbLine
 10
163761.1655768026
 20
83251.82338364184
 30
0.0
 11
163261.1655768026
 21
83251.82338364184
 31
0.0
  0
LINE
  5
1655E
330
1F
100
AcDbEntity
  8
D-STR（構造物外形線）
  6
Continuous
 62
     1
100
AcDbLine
 10
163261.1655768026
 20
79651.82338364184
 30
0.0
 11
163654.2690268021
 21
80044.92683364189
 31
0.0
  0
LINE
  5
16561
330
1F
100
AcDbEntity
  8
D-STR（構造物外形線）
  6
Continuous
 62
     1
100
AcDbLine
 10
163092.2815768021
 20
80718.56388364185
 30
0.0
 11
163092.2702093849
 21
80718.39337220168
 31
0.0
  0
ARC
  5
16563
330
1F
100
AcDbEntity
  8
D-STR（構造物外形線）
  6
Continuous
 62
     1
100
AcDbCircle
 10
162593.3890268022
 20
80751.82338364184
 30
0.0
 40
500.0
100
AcDbArc
 50
270.0
 51
356.1859250000196
  0
ARC
  5
16564
330
1F
100
AcDbEntity
  8
D-STR（構造物外形線）
  6
Continuous
 62
     1
100
AcDbCircle
 10
162593.3890268022
 20
80751.82338364184
 30
0.0
 40
750.0
100
AcDbArc
 50
270.0
 51
356.1859250000196
  0
ARC
  5
16565
330
1F
100
AcDbEntity
  8
D-STR（構造物外形線）
  6
Continuous
 62
     1
100
AcDbCircle
 10
162593.3890268022
 20
80751.82338364184
 30
0.0
 40
710.0
100
AcDbArc
 50
270.0
 51
356.1859250000196
  0
ARC
  5
16566
330
1F
100
AcDbEntity
  8
D-STR（構造物外形線）
  6
Continuous
 62
     1
100
AcDbCircle
 10
162593.3890268022
 20
80751.82338364184
 30
0.0
 40
550.0
100
AcDbArc
 50
270.0
 51
356.1859250000196
  0
LINE
  5
16569
330
1F
100
AcDbEntity
  8
D-STR（構造物外形線）
  6
Continuous
 62
     1
100
AcDbLine
 10
163261.1655768026
 20
83251.82338364184
 30
0.0
 11
163092.2815768021
 21
80718.56388364185
 31
0.0
  0
LINE
  5
1656A
330
1F
100
AcDbEntity
  8
D-STR（構造物外形線）
  6
Continuous
 62
     1
100
AcDbLine
 10
163761.1655768026
 20
83251.82338364184
 30
0.0
 11
163654.2690268021
 21
80044.92683364189
 31
0.0
  0
LINE
  5
1656B
330
1F
100
AcDbEntity
  8
D-STR（構造物外形線）
  6
Continuous
 62
     1
100
AcDbLine
 10
163511.7205268024
 20
83251.82338364184
 30
0.0
 11
163341.7278768019
 21
80701.93413364187
 31
0.0
  0
LINE
  5
1656C
330
1F
100
AcDbEntity
  8
D-STR（構造物外形線）
  6
Continuous
 62
     1
100
AcDbLine
 10
163471.809076802
 20
83254.48413364183
 30
0.0
 11
163301.8164768019
 21
80704.59488364187
 31
0.0
  0
LINE
  5
1656D
330
1F
100
AcDbEntity
  8
D-STR（構造物外形線）
  6
Continuous
 62
     1
100
AcDbLine
 10
163311.0548268016
 20
83248.49743364184
 30
0.0
 11
163142.170876802
 21
80715.23793364185
 31
0.0
  0
LINE
  5
1656E
330
1F
100
AcDbEntity
  8
D-STR-STR1（構造物）
  6
Continuous
 62
     7
100
AcDbLine
 10
175983.2095268027
 20
80718.82338364188
 30
0.0
 11
170417.2095268023
 21
80718.82338364188
 31
0.0
  0
LINE
  5
1656F
330
1F
100
AcDbEntity
  8
D-STR（構造物外形線）
  6
Continuous
 62
     1
100
AcDbLine
 10
170917.2095268024
 20
83251.82338364184
 30
0.0
 11
176917.2095268023
 21
80251.82338364182
 31
0.0
  0
LINE
  5
16571
330
1F
100
AcDbEntity
  8
D-STR（構造物外形線）
  6
Continuous
 62
     1
100
AcDbLine
 10
180417.2095268024
 20
83251.82338364184
 30
0.0
 11
180417.2095268024
 21
79651.82338364184
 31
0.0
  0
LINE
  5
16573
330
1F
100
AcDbEntity
  8
D-STR（構造物外形線）
  6
Continuous
 62
     1
100
AcDbLine
 10
179917.2095268023
 20
83251.82338364184
 30
0.0
 11
179717.2095268023
 21
80251.82338364182
 31
0.0
  0
LINE
  5
16575
330
1F
100
AcDbEntity
  8
D-STR-STR1（構造物）
  6
Continuous
 62
     7
100
AcDbLine
 10
180417.2095268024
 20
80718.82338364188
 30
0.0
 11
179748.342826802
 21
80718.82338364188
 31
0.0
  0
LINE
  5
1657B
330
1F
100
AcDbEntity
  8
D-TTL(外枠）
  6
Continuous
 62
     2
100
AcDbLine
 10
153765.6618268021
 20
99523.17423364192
 30
0.0
 11
189685.4199268019
 21
99523.17423364192
 31
0.0
  0
LINE
  5
165EA
330
1F
100
AcDbEntity
  8
D-STR（構造物外形線）
  6
Continuous
 62
     1
100
AcDbLine
 10
176917.2095268023
 20
93858.04298364195
 30
0.0
 11
177217.2095268023
 21
93858.04298364195
 31
0.0
  0
LINE
  5
165EC
330
1F
100
AcDbEntity
  8
D-STR（構造物外形線）
  6
Continuous
 62
     1
100
AcDbLine
 10
180417.2095268024
 20
87858.04298364196
 30
0.0
 11
170417.2095268023
 21
87858.04298364196
 31
0.0
  0
LINE
  5
165ED
330
1F
100
AcDbEntity
  8
D-STR（構造物外形線）
  6
Continuous
 62
     1
100
AcDbLine
 10
180417.2095268024
 20
88358.04298364195
 30
0.0
 11
170417.2095268023
 21
88358.04298364195
 31
0.0
  0
LINE
  5
165EE
330
1F
100
AcDbEntity
  8
D-STR（構造物外形線）
  6
Continuous
 62
     1
100
AcDbLine
 10
180417.2095268024
 20
94558.04298364196
 30
0.0
 11
170417.2095268023
 21
94558.04298364196
 31
0.0
  0
LINE
  5
165EF
330
1F
100
AcDbEntity
  8
D-STR-STR1（構造物）
  6
Continuous
 62
     7
100
AcDbLine
 10
180367.2095268024
 20
89025.81953364185
 30
0.0
 11
170467.2095268023
 21
89025.81953364185
 31
0.0
  0
LINE
  5
165F0
330
1F
100
AcDbEntity
  8
D-STR-STR1（構造物）
  6
Continuous
 62
     7
100
AcDbLine
 10
180367.2095268024
 20
88526.9269336419
 30
0.0
 11
170467.2095268023
 21
88526.9269336419
 31
0.0
  0
LINE
  5
165F1
330
1F
100
AcDbEntity
  8
D-STR（構造物外形線）
  6
Continuous
 62
     1
100
AcDbLine
 10
177217.2095268023
 20
94058.04298364195
 30
0.0
 11
170917.2095268024
 21
94058.04298364195
 31
0.0
  0
ARC
  5
165F3
330
1F
100
AcDbEntity
  8
D-STR（構造物外形線）
  6
Continuous
 62
     1
100
AcDbCircle
 10
175165.1317268024
 20
87901.39223364198
 30
0.0
 40
3293.568850000001
100
AcDbArc
 50
57.86138499974477
 51
86.59858000034827
  0
LINE
  5
165F4
330
1F
100
AcDbEntity
  8
D-STR（構造物外形線）
  6
Continuous
 62
     1
100
AcDbLine
 10
176917.2095268023
 20
93858.04298364195
 30
0.0
 11
176917.2095268023
 21
90690.26643364189
 31
0.0
  0
LINE
  5
16653
330
1F
100
AcDbEntity
  8
D-STR（構造物外形線）
  6
Continuous
 62
     1
100
AcDbLine
 10
170417.2095268023
 20
91608.04298364196
 30
0.0
 11
170517.2095268023
 21
91568.04298364187
 31
0.0
  0
LINE
  5
16654
330
1F
100
AcDbEntity
  8
D-STR（構造物外形線）
  6
Continuous
 62
     1
100
AcDbLine
 10
170467.2095268023
 20
91418.04298364188
 30
0.0
 11
170467.2095268023
 21
91358.04298364195
 31
0.0
  0
LINE
  5
16655
330
1F
100
AcDbEntity
  8
D-STR（構造物外形線）
  6
Continuous
 62
     1
100
AcDbLine
 10
170917.2095268024
 20
91358.04298364195
 30
0.0
 11
170417.2095268023
 21
91358.04298364195
 31
0.0
  0
LINE
  5
16656
330
1F
100
AcDbEntity
  8
D-STR（構造物外形線）
  6
Continuous
 62
     1
100
AcDbLine
 10
170517.2095268023
 20
91568.04298364187
 30
0.0
 11
170467.2095268023
 21
91418.04298364188
 31
0.0
  0
LINE
  5
16657
330
1F
100
AcDbEntity
  8
D-STR（構造物外形線）
  6
Continuous
 62
     1
100
AcDbLine
 10
170417.2095268023
 20
88108.04298364194
 30
0.0
 11
170517.2095268023
 21
88148.04298364188
 31
0.0
  0
LINE
  5
16658
330
1F
100
AcDbEntity
  8
D-STR（構造物外形線）
  6
Continuous
 62
     1
100
AcDbLine
 10
170517.2095268023
 20
88148.04298364188
 30
0.0
 11
170467.2095268023
 21
88298.04298364187
 31
0.0
  0
LINE
  5
16659
330
1F
100
AcDbEntity
  8
D-STR（構造物外形線）
  6
Continuous
 62
     1
100
AcDbLine
 10
170467.2095268023
 20
88298.04298364187
 30
0.0
 11
170467.2095268023
 21
88358.04298364195
 31
0.0
  0
LINE
  5
1665A
330
1F
100
AcDbEntity
  8
D-STR（構造物外形線）
  6
Continuous
 62
     1
100
AcDbLine
 10
170417.2095268023
 20
91858.04298364194
 30
0.0
 11
170417.2095268023
 21
87858.04298364196
 31
0.0
  0
LINE
  5
1665B
330
1F
100
AcDbEntity
  8
D-STR（構造物外形線）
  6
Continuous
 62
     1
100
AcDbLine
 10
170467.2095268023
 20
91358.04298364195
 30
0.0
 11
170467.2095268023
 21
88358.04298364195
 31
0.0
  0
LINE
  5
1665C
330
1F
100
AcDbEntity
  8
D-STR-HTXT（旗揚げ）
  6
Continuous
 62
     7
100
AcDbLine
 10
169556.3667268022
 20
91023.67548364192
 30
0.0
 11
169336.6754268024
 21
90426.5594336419
 31
0.0
  0
LINE
  5
1665E
330
1F
100
AcDbEntity
  8
D-STR-HTXT（旗揚げ）
  6
Continuous
 62
     7
100
AcDbLine
 10
169556.3667268022
 20
89982.85703364194
 30
0.0
 11
169556.3667268022
 21
91023.67548364192
 31
0.0
  0
LINE
  5
16660
330
1F
100
AcDbEntity
  8
D-STR-HTXT（旗揚げ）
  6
Continuous
 62
     7
100
AcDbLine
 10
171545.3136768019
 20
89982.85703364194
 30
0.0
 11
169556.3667268022
 21
89982.85703364194
 31
0.0
  0
LINE
  5
16661
330
1F
100
AcDbEntity
  8
D-STR-HTXT（旗揚げ）
  6
Continuous
 62
     7
100
AcDbLine
 10
169556.3667268022
 20
91023.67548364192
 30
0.0
 11
169776.0580268021
 21
90426.5594336419
 31
0.0
  0
TEXT
  5
16662
330
1F
100
AcDbEntity
  8
D-STR-TXT（文字）
 62
     7
100
AcDbText
 10
169273.4513268022
 20
91155.4974836418
 30
0.0
 40
500.0
  1
Ａ
  7
ＭＳ ゴシック
100
AcDbText
  0
LINE
  5
16664
330
1F
100
AcDbEntity
  8
D-STR（構造物外形線）
  6
Continuous
 62
     1
100
AcDbLine
 10
170417.2095268023
 20
94558.04298364196
 30
0.0
 11
170417.2095268023
 21
91858.04298364194
 31
0.0
  0
LINE
  5
16665
330
1F
100
AcDbEntity
  8
D-STR（構造物外形線）
  6
Continuous
 62
     1
100
AcDbLine
 10
170917.2095268024
 20
94058.04298364195
 30
0.0
 11
170917.2095268024
 21
91358.04298364195
 31
0.0
  0
LINE
  5
1669E
330
1F
100
AcDbEntity
  8
D-STR（構造物外形線）
  6
Continuous
 62
     1
100
AcDbLine
 10
170917.2095268024
 20
93858.04298364195
 30
0.0
 11
170917.2095268024
 21
91358.04298364195
 31
0.0
  0
LINE
  5
166A0
330
1F
100
AcDbEntity
  8
D-STR-STR1（構造物）
  6
Continuous
 62
     7
100
AcDbLine
 10
175360.5428268023
 20
91189.15898364184
 30
0.0
 11
170467.2095268023
 21
91189.15898364184
 31
0.0
  0
LINE
  5
166A1
330
1F
100
AcDbEntity
  8
D-STR（構造物外形線）
  6
Continuous
 62
     1
100
AcDbLine
 10
170917.2095268024
 20
91358.04298364195
 30
0.0
 11
175289.658726802
 21
91192.60613364199
 31
0.0
  0
LINE
  5
166A2
330
1F
100
AcDbEntity
  8
D-STR（構造物外形線）
  6
Continuous
 62
     1
100
AcDbLine
 10
170917.2095268024
 20
94058.04298364195
 30
0.0
 11
176917.2095268023
 21
93858.04298364195
 31
0.0
  0
LINE
  5
166A3
330
1F
100
AcDbEntity
  8
D-STR-STR1（構造物）
  6
Continuous
 62
     7
100
AcDbLine
 10
176917.2095268023
 20
90690.26643364189
 30
0.0
 11
170467.2095268023
 21
90690.26643364189
 31
0.0
  0
LINE
  5
166A6
330
1F
100
AcDbEntity
  8
D-STR（構造物外形線）
  6
Continuous
 62
     1
100
AcDbLine
 10
180417.2095268024
 20
91608.04298364196
 30
0.0
 11
180317.2095268023
 21
91568.04298364187
 31
0.0
  0
LINE
  5
166A7
330
1F
100
AcDbEntity
  8
D-STR-HTXT（旗揚げ）
  6
Continuous
 62
     7
100
AcDbLine
 10
181413.214476802
 20
91023.67548364192
 30
0.0
 11
181193.5231768021
 21
90426.5594336419
 31
0.0
  0
LINE
  5
166A8
330
1F
100
AcDbEntity
  8
D-STR-HTXT（旗揚げ）
  6
Continuous
 62
     7
100
AcDbLine
 10
181413.214476802
 20
91023.67548364192
 30
0.0
 11
181632.9057768018
 21
90426.5594336419
 31
0.0
  0
LINE
  5
166A9
330
1F
100
AcDbEntity
  8
D-STR（構造物外形線）
  6
Continuous
 62
     1
100
AcDbLine
 10
180367.2095268024
 20
91418.04298364188
 30
0.0
 11
180367.2095268024
 21
91358.04298364195
 31
0.0
  0
LINE
  5
166AA
330
1F
100
AcDbEntity
  8
D-STR（構造物外形線）
  6
Continuous
 62
     1
100
AcDbLine
 10
180317.2095268023
 20
91568.04298364187
 30
0.0
 11
180367.2095268024
 21
91418.04298364188
 31
0.0
  0
TEXT
  5
166AB
330
1F
100
AcDbEntity
  8
D-STR-TXT（文字）
 62
     7
100
AcDbText
 10
181196.127126802
 20
91257.45423364184
 30
0.0
 40
500.0
  1
Ａ
  7
ＭＳ ゴシック
100
AcDbText
  0
LINE
  5
166AC
330
1F
100
AcDbEntity
  8
D-STR（構造物外形線）
  6
Continuous
 62
     1
100
AcDbLine
 10
180417.2095268024
 20
88108.04298364194
 30
0.0
 11
180317.2095268023
 21
88148.04298364188
 31
0.0
  0
LINE
  5
166AD
330
1F
100
AcDbEntity
  8
D-STR（構造物外形線）
  6
Continuous
 62
     1
100
AcDbLine
 10
180317.2095268023
 20
88148.04298364188
 30
0.0
 11
180367.2095268024
 21
88298.04298364187
 31
0.0
  0
LINE
  5
166AE
330
1F
100
AcDbEntity
  8
D-STR（構造物外形線）
  6
Continuous
 62
     1
100
AcDbLine
 10
180367.2095268024
 20
88298.04298364187
 30
0.0
 11
180367.2095268024
 21
88358.04298364195
 31
0.0
  0
LINE
  5
166AF
330
1F
100
AcDbEntity
  8
D-STR（構造物外形線）
  6
Continuous
 62
     1
100
AcDbLine
 10
180417.2095268024
 20
91858.04298364194
 30
0.0
 11
180417.2095268024
 21
87858.04298364196
 31
0.0
  0
LINE
  5
166B0
330
1F
100
AcDbEntity
  8
D-STR-HTXT（旗揚げ）
  6
Continuous
 62
     7
100
AcDbLine
 10
181413.214476802
 20
89982.85703364194
 30
0.0
 11
181413.214476802
 21
91023.67548364192
 31
0.0
  0
LINE
  5
166B1
330
1F
100
AcDbEntity
  8
D-STR（構造物外形線）
  6
Continuous
 62
     1
100
AcDbLine
 10
180367.2095268024
 20
91358.04298364195
 30
0.0
 11
180367.2095268024
 21
88358.04298364195
 31
0.0
  0
LINE
  5
166B2
330
1F
100
AcDbEntity
  8
D-STR（構造物外形線）
  6
Continuous
 62
     1
100
AcDbLine
 10
180417.2095268024
 20
94558.04298364196
 30
0.0
 11
180417.2095268024
 21
91858.04298364194
 31
0.0
  0
LINE
  5
166B3
330
1F
100
AcDbEntity
  8
D-STR（構造物外形線）
  6
Continuous
 62
     1
100
AcDbLine
 10
179717.2095268023
 20
91358.04298364195
 30
0.0
 11
179717.2095268023
 21
90690.26643364189
 31
0.0
  0
POINT
  5
166B4
330
1F
100
AcDbEntity
  8
D-STR（構造物外形線）
  6
Continuous
 62
     1
100
AcDbPoint
 10
179717.2095268023
 20
91358.04298364195
 30
0.0
  0
LINE
  5
166B5
330
1F
100
AcDbEntity
  8
D-STR（構造物外形線）
  6
Continuous
 62
     1
100
AcDbLine
 10
179917.2095268023
 20
91358.04298364195
 30
0.0
 11
179748.342826802
 21
91189.15898364184
 31
0.0
  0
LINE
  5
166B6
330
1F
100
AcDbEntity
  8
D-STR（構造物外形線）
  6
Continuous
 62
     1
100
AcDbLine
 10
179748.342826802
 20
91189.15898364184
 30
0.0
 11
179717.2095268023
 21
90690.26643364189
 31
0.0
  0
ARC
  5
166B7
330
1F
100
AcDbEntity
  8
D-STR（構造物外形線）
  6
Continuous
 62
     1
100
AcDbCircle
 10
177217.2095268023
 20
91358.04298364195
 30
0.0
 40
2700.0
100
AcDbArc
 50
0.0
 51
90.0
  0
LINE
  5
166B8
330
1F
100
AcDbEntity
  8
D-STR（構造物外形線）
  6
Continuous
 62
     1
100
AcDbLine
 10
180417.2095268024
 20
91358.04298364195
 30
0.0
 11
179917.2095268023
 21
91358.04298364195
 31
0.0
  0
LINE
  5
166B9
330
1F
100
AcDbEntity
  8
D-STR-STR1（構造物）
  6
Continuous
 62
     7
100
AcDbLine
 10
180367.2095268024
 20
90690.26643364189
 30
0.0
 11
179717.2095268023
 21
90690.26643364189
 31
0.0
  0
LINE
  5
166BA
330
1F
100
AcDbEntity
  8
D-STR-STR1（構造物）
  6
Continuous
 62
     7
100
AcDbLine
 10
180367.2095268024
 20
91189.15898364184
 30
0.0
 11
179748.342826802
 21
91189.15898364184
 31
0.0
  0
LINE
  5
166BB
330
1F
100
AcDbEntity
  8
D-STR-STR1（構造物）
  6
Continuous
 62
     7
100
AcDbLine
 10
180367.2095268024
 20
90690.26643364189
 30
0.0
 11
179717.2095268023
 21
90690.26643364189
 31
0.0
  0
ARC
  5
166BC
330
1F
100
AcDbEntity
  8
D-STR（構造物外形線）
  6
Continuous
 62
     1
100
AcDbCircle
 10
177217.2095268023
 20
91358.04298364195
 30
0.0
 40
2500.0
100
AcDbArc
 50
0.0
 51
90.0
  0
LINE
  5
166BD
330
1F
100
AcDbEntity
  8
D-STR-HTXT（旗揚げ）
  6
Continuous
 62
     7
100
AcDbLine
 10
179424.2675268023
 20
89982.85703364194
 30
0.0
 11
181413.214476802
 21
89982.85703364194
 31
0.0
  0
TEXT
  5
26A11
330
1F
100
AcDbEntity
  8
D-TTL-TXT（文字）
 62
     7
100
AcDbText
 10
185414.1467226534
 20
76925.00503870542
 30
0.0
 40
320.0
  1
参考重量　　235kg
  7
ＭＳ ゴシック
 11
185414.1467226534
 21
76866.52788134501
 31
0.0
100
AcDbText
 73
     1
  0
TEXT
  5
26A12
330
1F
100
AcDbEntity
  8
D-TTL-TXT（文字）
 62
     7
100
AcDbText
 10
185427.2171171838
 20
75645.00503870544
 30
0.0
 40
320.0
  1
U300B×L=1000
  7
ＭＳ ゴシック
 11
185427.2171171838
 21
75586.52788134502
 31
0.0
100
AcDbText
 73
     1
  0
LINE
  5
26A13
330
1F
100
AcDbEntity
  8
D-TTL(外枠）
 48
10.0
100
AcDbLine
 10
185285.4198992551
 20
76778.95823364184
 30
0.0
 11
185285.4198992551
 21
74858.95823364184
 31
0.0
  0
TEXT
  5
26A14
330
1F
100
AcDbEntity
  8
D-TTL-TXT（文字）
 62
     7
100
AcDbText
 10
183334.1466951066
 20
74946.52788134501
 30
0.0
 40
320.0
  1
縮　尺
  7
ＭＳ ゴシック
100
AcDbText
  0
TEXT
  5
26A15
330
1F
100
AcDbEntity
  8
D-TTL-TXT（文字）
 62
     7
100
AcDbText
 10
183334.1466951066
 20
75586.52788134497
 30
0.0
 40
320.0
  1
呼び寸法
  7
ＭＳ ゴシック
100
AcDbText
  0
TEXT
  5
26A16
330
1F
100
AcDbEntity
  8
D-TTL-TXT（文字）
 62
     7
100
AcDbText
 10
183334.1466951066
 20
76226.52788134502
 30
0.0
 40
320.0
  1
名　称
  7
ＭＳ ゴシック
100
AcDbText
  0
LINE
  5
26A17
330
1F
100
AcDbEntity
  8
D-TTL(外枠）
 48
10.0
100
AcDbLine
 10
183205.4198992551
 20
74858.95823364184
 30
0.0
 11
189685.4198992551
 21
74858.95823364184
 31
0.0
  0
LINE
  5
26A18
330
1F
100
AcDbEntity
  8
D-TTL(外枠）
 48
10.0
100
AcDbLine
 10
183205.4198992551
 20
75498.95823364184
 30
0.0
 11
189685.4198992551
 21
75498.95823364184
 31
0.0
  0
LINE
  5
26A19
330
1F
100
AcDbEntity
  8
D-TTL(外枠）
 48
10.0
100
AcDbLine
 10
183205.4198992551
 20
76138.95823364184
 30
0.0
 11
189685.4198992551
 21
76138.95823364184
 31
0.0
  0
LINE
  5
26A1A
330
1F
100
AcDbEntity
  8
D-TTL(外枠）
 48
10.0
100
AcDbLine
 10
183205.4198992551
 20
76778.95823364184
 30
0.0
 11
189685.4198992551
 21
76778.95823364184
 31
0.0
  0
TEXT
  5
26A1B
330
1F
100
AcDbEntity
  8
D-TTL-TXT（文字）
 62
     7
100
AcDbText
 10
185414.1466951066
 20
76285.00503870544
 30
0.0
 40
320.0
  1
YLグリーンハイダセール
 41
0.7
  7
ＭＳ ゴシック
 11
185414.1466951066
 21
76226.52788134502
 31
0.0
100
AcDbText
 73
     1
  0
TEXT
  5
26A1C
330
1F
100
AcDbEntity
  8
D-TTL-TXT（文字）
 62
     7
100
AcDbText
 10
185414.1466951066
 20
75005.00503870542
 30
0.0
 40
320.0
  1
1：10
  7
ＭＳ ゴシック
 11
185414.1466951066
 21
74946.52788134501
 31
0.0
100
AcDbText
 73
     1
  0
LINE
  5
26A1D
330
1F
100
AcDbEntity
  8
D-TTL(外枠）
 48
10.0
100
AcDbLine
 10
183205.4198992551
 20
76778.95823364184
 30
0.0
 11
183205.4198992551
 21
74218.95823364184
 31
0.0
  0
TEXT
  5
26A1E
330
1F
100
AcDbEntity
  8
D-TTL-TXT（文字）
 62
     7
100
AcDbText
 10
183334.1466951066
 20
74306.52788134501
 30
0.0
 40
320.0
  1
三和コンクリート工業株式会社
  7
ＭＳ ゴシック
100
AcDbText
  0
TEXT
  5
26A24
330
1F
100
AcDbEntity
  8
D-TTL-TXT（文字）
 62
     7
100
AcDbText
 10
177129.7728635235
 20
74551.06427646819
 30
0.0
 40
320.0
  1
※製品は右・左あります
  7
ＭＳ ゴシック
 11
177129.7728635235
 21
74492.58711910777
 31
0.0
100
AcDbText
 73
     1
  0
LINE
  5
2797E
330
1F
100
AcDbEntity
  8
D-STR-STRn（構造物）
  6
Continuous
 62
     7
100
AcDbLine
 10
170497.5
 20
91189.15898364184
 30
0.0
 11
170497.5
 21
91358.04298364195
 31
0.0
  0
LINE
  5
2797F
330
1F
100
AcDbEntity
  8
D-STR-STRn（構造物）
  6
Continuous
 62
     7
100
AcDbLine
 10
170656.25
 20
91189.15898364184
 30
0.0
 11
170656.25
 21
91358.04298364195
 31
0.0
  0
LINE
  5
27980
330
1F
100
AcDbEntity
  8
D-STR-STRn（構造物）
  6
Continuous
 62
     7
100
AcDbLine
 10
170815.0
 20
91189.15898364184
 30
0.0
 11
170815.0
 21
91358.04298364195
 31
0.0
  0
LINE
  5
27981
330
1F
100
AcDbEntity
  8
D-STR-STRn（構造物）
  6
Continuous
 62
     7
100
AcDbLine
 10
170973.75
 20
91189.15898364184
 30
0.0
 11
170973.75
 21
94056.15830120202
 31
0.0
  0
LINE
  5
27982
330
1F
100
AcDbEntity
  8
D-STR-STRn（構造物）
  6
Continuous
 62
     7
100
AcDbLine
 10
171132.5
 20
91189.15898364184
 30
0.0
 11
171132.5
 21
94050.86663453538
 31
0.0
  0
LINE
  5
27983
330
1F
100
AcDbEntity
  8
D-STR-STRn（構造物）
  6
Continuous
 62
     7
100
AcDbLine
 10
171291.25
 20
91189.15898364184
 30
0.0
 11
171291.25
 21
94045.57496786868
 31
0.0
  0
LINE
  5
27984
330
1F
100
AcDbEntity
  8
D-STR-STRn（構造物）
  6
Continuous
 62
     7
100
AcDbLine
 10
171450.0
 20
91189.15898364184
 30
0.0
 11
171450.0
 21
94040.28330120203
 31
0.0
  0
LINE
  5
27985
330
1F
100
AcDbEntity
  8
D-STR-STRn（構造物）
  6
Continuous
 62
     7
100
AcDbLine
 10
171608.75
 20
91189.15898364184
 30
0.0
 11
171608.75
 21
94034.99163453536
 31
0.0
  0
LINE
  5
27986
330
1F
100
AcDbEntity
  8
D-STR-STRn（構造物）
  6
Continuous
 62
     7
100
AcDbLine
 10
171767.5
 20
91189.15898364184
 30
0.0
 11
171767.5
 21
94029.69996786868
 31
0.0
  0
LINE
  5
27987
330
1F
100
AcDbEntity
  8
D-STR-STRn（構造物）
  6
Continuous
 62
     7
100
AcDbLine
 10
171926.25
 20
91189.15898364184
 30
0.0
 11
171926.25
 21
94024.40830120204
 31
0.0
  0
LINE
  5
27988
330
1F
100
AcDbEntity
  8
D-STR-STRn（構造物）
  6
Continuous
 62
     7
100
AcDbLine
 10
172085.0
 20
91189.15898364184
 30
0.0
 11
172085.0
 21
94019.11663453537
 31
0.0
  0
LINE
  5
27989
330
1F
100
AcDbEntity
  8
D-STR-STRn（構造物）
  6
Continuous
 62
     7
100
AcDbLine
 10
172243.75
 20
91189.15898364184
 30
0.0
 11
172243.75
 21
94013.82496786872
 31
0.0
  0
LINE
  5
2798A
330
1F
100
AcDbEntity
  8
D-STR-STRn（構造物）
  6
Continuous
 62
     7
100
AcDbLine
 10
172402.5
 20
91189.15898364184
 30
0.0
 11
172402.5
 21
94008.53330120202
 31
0.0
  0
LINE
  5
2798B
330
1F
100
AcDbEntity
  8
D-STR-STRn（構造物）
  6
Continuous
 62
     7
100
AcDbLine
 10
172561.25
 20
91189.15898364184
 30
0.0
 11
172561.25
 21
94003.24163453538
 31
0.0
  0
LINE
  5
2798C
330
1F
100
AcDbEntity
  8
D-STR-STRn（構造物）
  6
Continuous
 62
     7
100
AcDbLine
 10
172720.0
 20
91189.15898364184
 30
0.0
 11
172720.0
 21
93997.94996786868
 31
0.0
  0
LINE
  5
2798D
330
1F
100
AcDbEntity
  8
D-STR-STRn（構造物）
  6
Continuous
 62
     7
100
AcDbLine
 10
172878.75
 20
91189.15898364184
 30
0.0
 11
172878.75
 21
93992.65830120203
 31
0.0
  0
LINE
  5
2798E
330
1F
100
AcDbEntity
  8
D-STR-STRn（構造物）
  6
Continuous
 62
     7
100
AcDbLine
 10
173037.5
 20
91189.15898364184
 30
0.0
 11
173037.5
 21
93987.36663453536
 31
0.0
  0
LINE
  5
2798F
330
1F
100
AcDbEntity
  8
D-STR-STRn（構造物）
  6
Continuous
 62
     7
100
AcDbLine
 10
173196.25
 20
91189.15898364184
 30
0.0
 11
173196.25
 21
93982.07496786868
 31
0.0
  0
LINE
  5
27990
330
1F
100
AcDbEntity
  8
D-STR-STRn（構造物）
  6
Continuous
 62
     7
100
AcDbLine
 10
173355.0
 20
91189.15898364184
 30
0.0
 11
173355.0
 21
93976.78330120204
 31
0.0
  0
LINE
  5
27991
330
1F
100
AcDbEntity
  8
D-STR-STRn（構造物）
  6
Continuous
 62
     7
100
AcDbLine
 10
173513.75
 20
91189.15898364184
 30
0.0
 11
173513.75
 21
93971.49163453537
 31
0.0
  0
LINE
  5
27992
330
1F
100
AcDbEntity
  8
D-STR-STRn（構造物）
  6
Continuous
 62
     7
100
AcDbLine
 10
173672.5
 20
91189.15898364184
 30
0.0
 11
173672.5
 21
93966.19996786872
 31
0.0
  0
LINE
  5
27993
330
1F
100
AcDbEntity
  8
D-STR-STRn（構造物）
  6
Continuous
 62
     7
100
AcDbLine
 10
173831.25
 20
91189.15898364184
 30
0.0
 11
173831.25
 21
93960.90830120202
 31
0.0
  0
LINE
  5
27994
330
1F
100
AcDbEntity
  8
D-STR-STRn（構造物）
  6
Continuous
 62
     7
100
AcDbLine
 10
173990.0
 20
91189.15898364184
 30
0.0
 11
173990.0
 21
93955.61663453538
 31
0.0
  0
LINE
  5
27995
330
1F
100
AcDbEntity
  8
D-STR-STRn（構造物）
  6
Continuous
 62
     7
100
AcDbLine
 10
174148.75
 20
91189.15898364184
 30
0.0
 11
174148.75
 21
93950.32496786868
 31
0.0
  0
LINE
  5
27996
330
1F
100
AcDbEntity
  8
D-STR-STRn（構造物）
  6
Continuous
 62
     7
100
AcDbLine
 10
174307.5
 20
91189.15898364184
 30
0.0
 11
174307.5
 21
93945.03330120203
 31
0.0
  0
LINE
  5
27997
330
1F
100
AcDbEntity
  8
D-STR-STRn（構造物）
  6
Continuous
 62
     7
100
AcDbLine
 10
174466.25
 20
91189.15898364184
 30
0.0
 11
174466.25
 21
93939.74163453536
 31
0.0
  0
LINE
  5
27998
330
1F
100
AcDbEntity
  8
D-STR-STRn（構造物）
  6
Continuous
 62
     7
100
AcDbLine
 10
174625.0
 20
91189.15898364184
 30
0.0
 11
174625.0
 21
93934.44996786868
 31
0.0
  0
LINE
  5
27999
330
1F
100
AcDbEntity
  8
D-STR-STRn（構造物）
  6
Continuous
 62
     7
100
AcDbLine
 10
174783.75
 20
91189.15898364184
 30
0.0
 11
174783.75
 21
93929.15830120204
 31
0.0
  0
LINE
  5
2799A
330
1F
100
AcDbEntity
  8
D-STR-STRn（構造物）
  6
Continuous
 62
     7
100
AcDbLine
 10
174942.5
 20
91189.15898364184
 30
0.0
 11
174942.5
 21
93923.86663453537
 31
0.0
  0
LINE
  5
2799B
330
1F
100
AcDbEntity
  8
D-STR-STRn（構造物）
  6
Continuous
 62
     7
100
AcDbLine
 10
175101.25
 20
91189.15898364184
 30
0.0
 11
175101.25
 21
93918.57496786872
 31
0.0
  0
LINE
  5
2799C
330
1F
100
AcDbEntity
  8
D-STR-STRn（構造物）
  6
Continuous
 62
     7
100
AcDbLine
 10
175260.0
 20
91189.15898364184
 30
0.0
 11
175260.0
 21
93913.28330120202
 31
0.0
  0
LINE
  5
2799D
330
1F
100
AcDbEntity
  8
D-STR-STRn（構造物）
  6
Continuous
 62
     7
100
AcDbLine
 10
175418.75
 20
91185.1817429118
 30
0.0
 11
175418.75
 21
93907.99163453538
 31
0.0
  0
LINE
  5
2799E
330
1F
100
AcDbEntity
  8
D-STR-STRn（構造物）
  6
Continuous
 62
     7
100
AcDbLine
 10
175577.5
 20
91169.04401694911
 30
0.0
 11
175577.5
 21
93902.69996786868
 31
0.0
  0
LINE
  5
2799F
330
1F
100
AcDbEntity
  8
D-STR-STRn（構造物）
  6
Continuous
 62
     7
100
AcDbLine
 10
175736.25
 20
91145.0660285403
 30
0.0
 11
175736.25
 21
93897.40830120203
 31
0.0
  0
LINE
  5
279A0
330
1F
100
AcDbEntity
  8
D-STR-STRn（構造物）
  6
Continuous
 62
     7
100
AcDbLine
 10
175895.0
 20
91113.07217931992
 30
0.0
 11
175895.0
 21
93892.11663453536
 31
0.0
  0
LINE
  5
279A1
330
1F
100
AcDbEntity
  8
D-STR-STRn（構造物）
  6
Continuous
 62
     7
100
AcDbLine
 10
176053.75
 20
91072.8198828608
 30
0.0
 11
176053.75
 21
93886.82496786868
 31
0.0
  0
LINE
  5
279A2
330
1F
100
AcDbEntity
  8
D-STR-STRn（構造物）
  6
Continuous
 62
     7
100
AcDbLine
 10
176212.5
 20
91023.98978535903
 30
0.0
 11
176212.5
 21
93881.53330120204
 31
0.0
  0
LINE
  5
279A3
330
1F
100
AcDbEntity
  8
D-STR-STRn（構造物）
  6
Continuous
 62
     7
100
AcDbLine
 10
176371.25
 20
90966.17191263183
 30
0.0
 11
176371.25
 21
93876.24163453537
 31
0.0
  0
LINE
  5
279A4
330
1F
100
AcDbEntity
  8
D-STR-STRn（構造物）
  6
Continuous
 62
     7
100
AcDbLine
 10
176530.0
 20
90898.84621435775
 30
0.0
 11
176530.0
 21
93870.94996786872
 31
0.0
  0
LINE
  5
279A5
330
1F
100
AcDbEntity
  8
D-STR-STRn（構造物）
  6
Continuous
 62
     7
100
AcDbLine
 10
176688.75
 20
90821.35509766416
 30
0.0
 11
176688.75
 21
93865.65830120202
 31
0.0
  0
LINE
  5
279A6
330
1F
100
AcDbEntity
  8
D-STR-STRn（構造物）
  6
Continuous
 62
     7
100
AcDbLine
 10
176847.5
 20
90732.86407051911
 30
0.0
 11
176847.5
 21
93860.36663453538
 31
0.0
  0
LINE
  5
279A7
330
1F
100
AcDbEntity
  8
D-STR-DIM（寸法）
  6
Continuous
 62
     7
370
     5
100
AcDbLine
 10
170917.2095268024
 20
94708.04298364193
 30
0.0
 11
170917.2095268024
 21
95686.30193364183
 31
0.0
  0
LINE
  5
279A8
330
1F
100
AcDbEntity
  8
D-STR-DIM（寸法）
  6
Continuous
 62
     7
370
     5
100
AcDbLine
 10
176917.2095268023
 20
94708.04298364193
 30
0.0
 11
176917.2095268023
 21
95686.30193364183
 31
0.0
  0
LINE
  5
279A9
330
1F
100
AcDbEntity
  8
D-STR-DIM（寸法）
  6
Continuous
 62
     7
370
     5
100
AcDbLine
 10
171217.2095268023
 20
95586.30193364184
 30
0.0
 11
176617.2095268023
 21
95586.30193364184
 31
0.0
  0
LINE
  5
279AD
330
1F
100
AcDbEntity
  8
D-STR-DIM（寸法）
  6
Continuous
 62
     7
370
     5
100
AcDbLine
 10
170417.2095268023
 20
94708.04298364194
 30
0.0
 11
170417.2095268023
 21
96861.27758364193
 31
0.0
  0
LINE
  5
279AE
330
1F
100
AcDbEntity
  8
D-STR-DIM（寸法）
  6
Continuous
 62
     7
370
     5
100
AcDbLine
 10
180417.2095268024
 20
94708.04298364194
 30
0.0
 11
180417.2095268024
 21
96861.27758364193
 31
0.0
  0
LINE
  5
279AF
330
1F
100
AcDbEntity
  8
D-STR-DIM（寸法）
  6
Continuous
 62
     7
370
     5
100
AcDbLine
 10
170717.2095268024
 20
96761.27758364193
 30
0.0
 11
180117.2095268023
 21
96761.27758364193
 31
0.0
  0
LINE
  5
279B3
330
1F
100
AcDbEntity
  8
D-STR-DIM（寸法）
 62
     7
370
     5
100
AcDbLine
 10
170917.2095268024
 20
83401.82338364177
 30
0.0
 11
170917.2095268024
 21
85679.07798364194
 31
0.0
  0
LINE
  5
279B4
330
1F
100
AcDbEntity
  8
D-STR-DIM（寸法）
 62
     7
370
     5
100
AcDbLine
 10
176917.2095268023
 20
83401.82338364183
 30
0.0
 11
176917.2095268023
 21
85679.07798364194
 31
0.0
  0
LINE
  5
279B5
330
1F
100
AcDbEntity
  8
D-STR-DIM（寸法）
 62
     7
370
     5
100
AcDbLine
 10
171217.2095268023
 20
85579.07798364194
 30
0.0
 11
176617.2095268023
 21
85579.07798364194
 31
0.0
  0
LINE
  5
279B9
330
1F
100
AcDbEntity
  8
D-STR-DIM（寸法）
 62
     7
370
     5
100
AcDbLine
 10
170417.2095268023
 20
79501.82338364178
 30
0.0
 11
170417.2095268023
 21
78297.91438364191
 31
0.0
  0
LINE
  5
279BA
330
1F
100
AcDbEntity
  8
D-STR-DIM（寸法）
 62
     7
370
     5
100
AcDbLine
 10
180417.2095268024
 20
79501.82338364178
 30
0.0
 11
180417.2095268024
 21
78297.91438364191
 31
0.0
  0
LINE
  5
279BB
330
1F
100
AcDbEntity
  8
D-STR-DIM（寸法）
 62
     7
370
     5
100
AcDbLine
 10
170717.2095268024
 20
78397.91438364191
 30
0.0
 11
180117.2095268023
 21
78397.91438364191
 31
0.0
  0
LINE
  5
279BF
330
1F
100
AcDbEntity
  8
D-STR-DIM（寸法）
  6
Continuous
 62
     7
370
     5
100
AcDbLine
 10
163061.165576802
 20
79501.82338364182
 30
0.0
 11
163061.165576802
 21
78660.55868364188
 31
0.0
  0
LINE
  5
279C0
330
1F
100
AcDbEntity
  8
D-STR-DIM（寸法）
  6
Continuous
 62
     7
370
     5
100
AcDbLine
 10
160461.165576802
 20
79501.82338364182
 30
0.0
 11
160461.165576802
 21
78660.55868364188
 31
0.0
  0
LINE
  5
279C1
330
1F
100
AcDbEntity
  8
D-STR-DIM（寸法）
  6
Continuous
 62
     7
370
     5
100
AcDbLine
 10
162761.165576802
 20
78760.55868364188
 30
0.0
 11
160761.1655768019
 21
78760.55868364188
 31
0.0
  0
LINE
  5
279C5
330
1F
100
AcDbEntity
  8
D-STR-DIM（寸法）
 62
     7
370
     5
100
AcDbLine
 10
159878.0059781435
 20
79117.39552508737
 30
0.0
 11
160496.2682985735
 21
80078.92412194408
 31
0.0
  0
LINE
  5
279C8
330
1F
100
AcDbEntity
  8
D-STR-DIM（寸法）
 62
     7
370
     5
100
AcDbLine
 10
160728.9421268021
 20
80751.82338364227
 30
0.0
 11
161128.942126802
 21
80751.82338364227
 31
0.0
  0
LINE
  5
279C9
330
1F
100
AcDbEntity
  8
D-STR-DIM（寸法）
 62
     7
370
     5
100
AcDbLine
 10
160928.9421268021
 20
80551.82338364227
 30
0.0
 11
160928.9421268021
 21
80951.82338364228
 31
0.0
  0
LINE
  5
279CA
330
1F
100
AcDbEntity
  8
D-STR-DIM（寸法）
 62
     7
370
     5
100
AcDbLine
 10
159761.165576802
 20
83401.82338364177
 30
0.0
 11
159761.165576802
 21
85679.07798364194
 31
0.0
  0
LINE
  5
279CB
330
1F
100
AcDbEntity
  8
D-STR-DIM（寸法）
 62
     7
370
     5
100
AcDbLine
 10
163761.165576802
 20
83401.82338364177
 30
0.0
 11
163761.165576802
 21
85679.07798364194
 31
0.0
  0
LINE
  5
279CC
330
1F
100
AcDbEntity
  8
D-STR-DIM（寸法）
 62
     7
370
     5
100
AcDbLine
 10
160061.165576802
 20
85579.07798364194
 30
0.0
 11
163461.165576802
 21
85579.07798364194
 31
0.0
  0
LINE
  5
279D0
330
1F
100
AcDbEntity
  8
D-STR-DIM（寸法）
 62
     7
370
     5
100
AcDbLine
 10
160261.165576802
 20
83401.82338364177
 30
0.0
 11
160261.165576802
 21
84891.98471504682
 31
0.0
  0
LINE
  5
279D1
330
1F
100
AcDbEntity
  8
D-STR-DIM（寸法）
 62
     7
370
     5
100
AcDbLine
 10
163261.165576802
 20
83401.82338364177
 30
0.0
 11
163261.165576802
 21
84891.98471504682
 31
0.0
  0
LINE
  5
279D2
330
1F
100
AcDbEntity
  8
D-STR-DIM（寸法）
 62
     7
370
     5
100
AcDbLine
 10
160561.165576802
 20
84791.98471504682
 30
0.0
 11
162961.165576802
 21
84791.98471504682
 31
0.0
  0
LINE
  5
279D6
330
1F
100
AcDbEntity
  8
D-STR-DIM（寸法）
  6
Continuous
 62
     7
370
     5
100
AcDbLine
 10
160461.165576802
 20
79501.82338364182
 30
0.0
 11
160461.165576802
 21
78660.55868364188
 31
0.0
  0
LINE
  5
279D7
330
1F
100
AcDbEntity
  8
D-STR-DIM（寸法）
  6
Continuous
 62
     7
370
     5
100
AcDbLine
 10
159861.165576802
 20
79501.82338364182
 30
0.0
 11
159861.165576802
 21
78660.55868364188
 31
0.0
  0
LINE
  5
279D8
330
1F
100
AcDbEntity
  8
D-STR-DIM（寸法）
  6
Continuous
 62
     7
370
     5
100
AcDbLine
 10
160761.1655768019
 20
78760.55868364188
 30
0.0
 11
161061.165576802
 21
78760.55868364188
 31
0.0
  0
LINE
  5
279D9
330
1F
100
AcDbEntity
  8
D-STR-DIM（寸法）
  6
Continuous
 62
     7
370
     5
100
AcDbLine
 10
159561.165576802
 20
78760.55868364188
 30
0.0
 11
159261.165576802
 21
78760.55868364188
 31
0.0
  0
LINE
  5
279DD
330
1F
100
AcDbEntity
  8
D-STR-DIM（寸法）
 62
     7
370
     5
100
AcDbLine
 10
157061.165576802
 20
83401.82338364177
 30
0.0
 11
157061.165576802
 21
85679.07798364194
 31
0.0
  0
LINE
  5
279DE
330
1F
100
AcDbEntity
  8
D-STR-DIM（寸法）
 62
     7
370
     5
100
AcDbLine
 10
159761.165576802
 20
83401.82338364177
 30
0.0
 11
159761.165576802
 21
85679.07798364194
 31
0.0
  0
LINE
  5
279DF
330
1F
100
AcDbEntity
  8
D-STR-DIM（寸法）
 62
     7
370
     5
100
AcDbLine
 10
157361.165576802
 20
85579.07798364194
 30
0.0
 11
159461.165576802
 21
85579.07798364194
 31
0.0
  0
LINE
  5
279E3
330
1F
100
AcDbEntity
  8
D-STR-DIM（寸法）
 62
     7
370
     5
100
AcDbLine
 10
159761.165576802
 20
83401.82338364177
 30
0.0
 11
159761.165576802
 21
84891.98471504682
 31
0.0
  0
LINE
  5
279E4
330
1F
100
AcDbEntity
  8
D-STR-DIM（寸法）
 62
     7
370
     5
100
AcDbLine
 10
160261.165576802
 20
83401.82338364177
 30
0.0
 11
160261.165576802
 21
84891.98471504682
 31
0.0
  0
LINE
  5
279E5
330
1F
100
AcDbEntity
  8
D-STR-DIM（寸法）
 62
     7
370
     5
100
AcDbLine
 10
159461.165576802
 20
84791.98471504682
 30
0.0
 11
159161.165576802
 21
84791.98471504682
 31
0.0
  0
LINE
  5
279E6
330
1F
100
AcDbEntity
  8
D-STR-DIM（寸法）
 62
     7
370
     5
100
AcDbLine
 10
160561.165576802
 20
84791.98471504682
 30
0.0
 11
160861.1655768021
 21
84791.98471504682
 31
0.0
  0
LINE
  5
279EA
330
1F
100
AcDbEntity
  8
D-STR-DIM（寸法）
 62
     7
370
     5
100
AcDbLine
 10
163411.165576802
 20
79651.82338364177
 30
0.0
 11
165385.0411768026
 21
79651.82338364177
 31
0.0
  0
LINE
  5
279EB
330
1F
100
AcDbEntity
  8
D-STR-DIM（寸法）
 62
     7
370
     5
100
AcDbLine
 10
163911.165576802
 20
83251.82338364177
 30
0.0
 11
165385.0411768026
 21
83251.82338364177
 31
0.0
  0
LINE
  5
279EC
330
1F
100
AcDbEntity
  8
D-STR-DIM（寸法）
 62
     7
370
     5
100
AcDbLine
 10
165285.0411768026
 20
79951.82338364176
 30
0.0
 11
165285.0411768026
 21
82951.82338364176
 31
0.0
  0
LINE
  5
279F0
330
1F
100
AcDbEntity
  8
D-STR-DIM（寸法）
 62
     7
370
     5
100
AcDbLine
 10
163811.1655783613
 20
80251.82338364178
 30
0.0
 11
164780.262776802
 21
80251.82338364176
 31
0.0
  0
LINE
  5
279F1
330
1F
100
AcDbEntity
  8
D-STR-DIM（寸法）
 62
     7
370
     5
100
AcDbLine
 10
163911.165576802
 20
83251.82338364177
 30
0.0
 11
164780.262776802
 21
83251.82338364177
 31
0.0
  0
LINE
  5
279F2
330
1F
100
AcDbEntity
  8
D-STR-DIM（寸法）
 62
     7
370
     5
100
AcDbLine
 10
164680.262776802
 20
80551.82338364176
 30
0.0
 11
164680.262776802
 21
82951.82338364176
 31
0.0
  0
LINE
  5
279F6
330
1F
100
AcDbEntity
  8
D-STR-DIM（寸法）
 62
     7
370
     5
100
AcDbLine
 10
170267.2095268023
 20
80251.82338364178
 30
0.0
 11
168871.6248268019
 21
80251.82338364178
 31
0.0
  0
LINE
  5
279F7
330
1F
100
AcDbEntity
  8
D-STR-DIM（寸法）
 62
     7
370
     5
100
AcDbLine
 10
170267.2095268023
 20
83251.82338364177
 30
0.0
 11
168871.6248268019
 21
83251.82338364177
 31
0.0
  0
LINE
  5
279F8
330
1F
100
AcDbEntity
  8
D-STR-DIM（寸法）
 62
     7
370
     5
100
AcDbLine
 10
168971.6248268019
 20
80551.82338364177
 30
0.0
 11
168971.6248268019
 21
82951.82338364178
 31
0.0
  0
LINE
  5
279FC
330
1F
100
AcDbEntity
  8
D-STR-DIM（寸法）
  6
Continuous
 62
     7
370
     5
100
AcDbLine
 10
163061.165576802
 20
79501.82338364182
 30
0.0
 11
163061.165576802
 21
78660.55868364188
 31
0.0
  0
LINE
  5
279FD
330
1F
100
AcDbEntity
  8
D-STR-DIM（寸法）
  6
Continuous
 62
     7
370
     5
100
AcDbLine
 10
163661.165576802
 20
79501.82338364182
 30
0.0
 11
163661.165576802
 21
78660.55868364188
 31
0.0
  0
LINE
  5
279FE
330
1F
100
AcDbEntity
  8
D-STR-DIM（寸法）
  6
Continuous
 62
     7
370
     5
100
AcDbLine
 10
162761.165576802
 20
78760.55868364188
 30
0.0
 11
162461.1655768021
 21
78760.55868364188
 31
0.0
  0
LINE
  5
279FF
330
1F
100
AcDbEntity
  8
D-STR-DIM（寸法）
  6
Continuous
 62
     7
370
     5
100
AcDbLine
 10
163961.1655768019
 20
78760.55868364188
 30
0.0
 11
164261.165576802
 21
78760.55868364188
 31
0.0
  0
LINE
  5
27A03
330
1F
100
AcDbEntity
  8
D-STR-DIM（寸法）
 62
     7
370
     5
100
AcDbLine
 10
163411.165576802
 20
79651.82338364177
 30
0.0
 11
164780.262776802
 21
79651.82338364177
 31
0.0
  0
LINE
  5
27A04
330
1F
100
AcDbEntity
  8
D-STR-DIM（寸法）
 62
     7
370
     5
100
AcDbLine
 10
163811.1655783613
 20
80251.82338364178
 30
0.0
 11
164780.262776802
 21
80251.82338364176
 31
0.0
  0
LINE
  5
27A05
330
1F
100
AcDbEntity
  8
D-STR-DIM（寸法）
 62
     7
370
     5
100
AcDbLine
 10
164680.262776802
 20
79351.82338364176
 30
0.0
 11
164680.262776802
 21
79051.82338364176
 31
0.0
  0
LINE
  5
27A06
330
1F
100
AcDbEntity
  8
D-STR-DIM（寸法）
 62
     7
370
     5
100
AcDbLine
 10
164680.262776802
 20
80551.82338364176
 30
0.0
 11
164680.262776802
 21
80851.82338364178
 31
0.0
  0
LINE
  5
27A0A
330
1F
100
AcDbEntity
  8
D-STR-DIM（寸法）
 62
     7
370
     5
100
AcDbLine
 10
170267.2095268023
 20
79651.82338364177
 30
0.0
 11
168871.6248268019
 21
79651.82338364177
 31
0.0
  0
LINE
  5
27A0B
330
1F
100
AcDbEntity
  8
D-STR-DIM（寸法）
 62
     7
370
     5
100
AcDbLine
 10
170267.2095268023
 20
80251.82338364178
 30
0.0
 11
168871.6248268019
 21
80251.82338364178
 31
0.0
  0
LINE
  5
27A0C
330
1F
100
AcDbEntity
  8
D-STR-DIM（寸法）
 62
     7
370
     5
100
AcDbLine
 10
168971.6248268019
 20
79351.82338364178
 30
0.0
 11
168971.6248268019
 21
79051.82338364178
 31
0.0
  0
LINE
  5
27A0D
330
1F
100
AcDbEntity
  8
D-STR-DIM（寸法）
 62
     7
370
     5
100
AcDbLine
 10
168971.6248268019
 20
80551.82338364177
 30
0.0
 11
168971.6248268019
 21
80851.82338364178
 31
0.0
  0
LINE
  5
27A11
330
1F
100
AcDbEntity
  8
D-STR-DIM（寸法）
 62
     7
370
     5
100
AcDbLine
 10
163261.165576802
 20
83401.82338364177
 30
0.0
 11
163261.165576802
 21
84891.98471504682
 31
0.0
  0
LINE
  5
27A12
330
1F
100
AcDbEntity
  8
D-STR-DIM（寸法）
 62
     7
370
     5
100
AcDbLine
 10
163761.165576802
 20
83401.82338364177
 30
0.0
 11
163761.165576802
 21
84891.98471504682
 31
0.0
  0
LINE
  5
27A13
330
1F
100
AcDbEntity
  8
D-STR-DIM（寸法）
 62
     7
370
     5
100
AcDbLine
 10
162961.165576802
 20
84791.98471504682
 30
0.0
 11
162661.165576802
 21
84791.98471504682
 31
0.0
  0
LINE
  5
27A14
330
1F
100
AcDbEntity
  8
D-STR-DIM（寸法）
 62
     7
370
     5
100
AcDbLine
 10
164061.1655768021
 20
84791.98471504682
 30
0.0
 11
164361.165576802
 21
84791.98471504682
 31
0.0
  0
LINE
  5
27A18
330
1F
100
AcDbEntity
  8
D-STR-DIM（寸法）
 62
     7
370
     5
100
AcDbLine
 10
170417.2095268023
 20
83401.82338364177
 30
0.0
 11
170417.2095268023
 21
85679.07798364194
 31
0.0
  0
LINE
  5
27A19
330
1F
100
AcDbEntity
  8
D-STR-DIM（寸法）
 62
     7
370
     5
100
AcDbLine
 10
170917.2095268024
 20
83401.82338364177
 30
0.0
 11
170917.2095268024
 21
85679.07798364194
 31
0.0
  0
LINE
  5
27A1A
330
1F
100
AcDbEntity
  8
D-STR-DIM（寸法）
 62
     7
370
     5
100
AcDbLine
 10
170117.2095268023
 20
85579.07798364194
 30
0.0
 11
169817.2095268024
 21
85579.07798364194
 31
0.0
  0
LINE
  5
27A1B
330
1F
100
AcDbEntity
  8
D-STR-DIM（寸法）
 62
     7
370
     5
100
AcDbLine
 10
171217.2095268023
 20
85579.07798364194
 30
0.0
 11
171517.2095268023
 21
85579.07798364194
 31
0.0
  0
LINE
  5
27A1F
330
1F
100
AcDbEntity
  8
D-STR-DIM（寸法）
  6
Continuous
 62
     7
370
     5
100
AcDbLine
 10
170267.2095268023
 20
91858.04298364194
 30
0.0
 11
168434.6085268016
 21
91858.04298364194
 31
0.0
  0
LINE
  5
27A20
330
1F
100
AcDbEntity
  8
D-STR-DIM（寸法）
  6
Continuous
 62
     7
370
     5
100
AcDbLine
 10
170081.9307268014
 20
94558.04298364196
 30
0.0
 11
168434.6085268016
 21
94558.04298364196
 31
0.0
  0
LINE
  5
27A21
330
1F
100
AcDbEntity
  8
D-STR-DIM（寸法）
  6
Continuous
 62
     7
370
     5
100
AcDbLine
 10
168534.6085268016
 20
92158.04298364195
 30
0.0
 11
168534.6085268016
 21
94258.04298364194
 31
0.0
  0
LINE
  5
27A25
330
1F
100
AcDbEntity
  8
D-STR-DIM（寸法）
  6
Continuous
 62
     7
370
     5
100
AcDbLine
 10
170267.2095268023
 20
87858.04298364196
 30
0.0
 11
168434.6085268016
 21
87858.04298364196
 31
0.0
  0
LINE
  5
27A26
330
1F
100
AcDbEntity
  8
D-STR-DIM（寸法）
  6
Continuous
 62
     7
370
     5
100
AcDbLine
 10
170267.2095268023
 20
91858.04298364194
 30
0.0
 11
168434.6085268016
 21
91858.04298364194
 31
0.0
  0
LINE
  5
27A27
330
1F
100
AcDbEntity
  8
D-STR-DIM（寸法）
  6
Continuous
 62
     7
370
     5
100
AcDbLine
 10
168534.6085268016
 20
88158.04298364199
 30
0.0
 11
168534.6085268016
 21
91558.04298364195
 31
0.0
  0
LINE
  5
27A2B
330
1F
100
AcDbEntity
  8
D-STR-DIM（寸法）
  6
Continuous
 62
     7
370
     5
100
AcDbLine
 10
170417.2095268023
 20
94708.04298364194
 30
0.0
 11
170417.2095268023
 21
95686.30193364183
 31
0.0
  0
LINE
  5
27A2C
330
1F
100
AcDbEntity
  8
D-STR-DIM（寸法）
  6
Continuous
 62
     7
370
     5
100
AcDbLine
 10
170917.2095268024
 20
94708.04298364193
 30
0.0
 11
170917.2095268024
 21
95686.30193364183
 31
0.0
  0
LINE
  5
27A2D
330
1F
100
AcDbEntity
  8
D-STR-DIM（寸法）
  6
Continuous
 62
     7
370
     5
100
AcDbLine
 10
170117.2095268023
 20
95586.30193364184
 30
0.0
 11
169817.2095268024
 21
95586.30193364184
 31
0.0
  0
LINE
  5
27A2E
330
1F
100
AcDbEntity
  8
D-STR-DIM（寸法）
  6
Continuous
 62
     7
370
     5
100
AcDbLine
 10
171217.2095268023
 20
95586.30193364184
 30
0.0
 11
171517.2095268023
 21
95586.30193364184
 31
0.0
  0
LINE
  5
27A32
330
1F
100
AcDbEntity
  8
D-STR-DIM（寸法）
 62
     7
370
     5
100
AcDbLine
 10
179917.2095268023
 20
83401.82338364177
 30
0.0
 11
179917.2095268023
 21
85679.07798364194
 31
0.0
  0
LINE
  5
27A33
330
1F
100
AcDbEntity
  8
D-STR-DIM（寸法）
 62
     7
370
     5
100
AcDbLine
 10
180417.2095268024
 20
83401.82338364177
 30
0.0
 11
180417.2095268024
 21
85679.07798364194
 31
0.0
  0
LINE
  5
27A34
330
1F
100
AcDbEntity
  8
D-STR-DIM（寸法）
 62
     7
370
     5
100
AcDbLine
 10
179617.2095268023
 20
85579.07798364194
 30
0.0
 11
179317.2095268024
 21
85579.07798364194
 31
0.0
  0
LINE
  5
27A35
330
1F
100
AcDbEntity
  8
D-STR-DIM（寸法）
 62
     7
370
     5
100
AcDbLine
 10
180717.2095268024
 20
85579.07798364194
 30
0.0
 11
181017.2095268023
 21
85579.07798364194
 31
0.0
  0
LINE
  5
27A39
330
1F
100
AcDbEntity
  8
D-STR-DIM（寸法）
 62
     7
370
     5
100
AcDbLine
 10
179717.2095268023
 20
83401.82338364183
 30
0.0
 11
179717.2095268023
 21
84891.98471504682
 31
0.0
  0
LINE
  5
27A3A
330
1F
100
AcDbEntity
  8
D-STR-DIM（寸法）
 62
     7
370
     5
100
AcDbLine
 10
179917.2095268023
 20
83401.82338364177
 30
0.0
 11
179917.2095268023
 21
84891.98471504682
 31
0.0
  0
LINE
  5
27A3B
330
1F
100
AcDbEntity
  8
D-STR-DIM（寸法）
 62
     7
370
     5
100
AcDbLine
 10
179417.2095268023
 20
84791.98471504682
 30
0.0
 11
179117.2095268024
 21
84791.98471504682
 31
0.0
  0
LINE
  5
27A3C
330
1F
100
AcDbEntity
  8
D-STR-DIM（寸法）
 62
     7
370
     5
100
AcDbLine
 10
180217.2095268024
 20
84791.98471504682
 30
0.0
 11
180517.2095268023
 21
84791.98471504682
 31
0.0
  0
LINE
  5
27A40
330
1F
100
AcDbEntity
  8
D-STR-DIM（寸法）
 62
     7
370
     5
100
AcDbLine
 10
176917.2095268023
 20
83401.82338364183
 30
0.0
 11
176917.2095268023
 21
85679.07798364194
 31
0.0
  0
LINE
  5
27A41
330
1F
100
AcDbEntity
  8
D-STR-DIM（寸法）
 62
     7
370
     5
100
AcDbLine
 10
179917.2095268023
 20
83401.82338364177
 30
0.0
 11
179917.2095268023
 21
85679.07798364194
 31
0.0
  0
LINE
  5
27A42
330
1F
100
AcDbEntity
  8
D-STR-DIM（寸法）
 62
     7
370
     5
100
AcDbLine
 10
177217.2095268023
 20
85579.07798364194
 30
0.0
 11
179617.2095268023
 21
85579.07798364194
 31
0.0
  0
LINE
  5
27A46
330
1F
100
AcDbEntity
  8
D-STR-DIM（寸法）
  6
Continuous
 62
     7
370
     5
100
AcDbLine
 10
179917.2095268023
 20
94708.04298364193
 30
0.0
 11
179917.2095268023
 21
95686.30193364183
 31
0.0
  0
LINE
  5
27A47
330
1F
100
AcDbEntity
  8
D-STR-DIM（寸法）
  6
Continuous
 62
     7
370
     5
100
AcDbLine
 10
180417.2095268024
 20
94708.04298364194
 30
0.0
 11
180417.2095268024
 21
95686.30193364183
 31
0.0
  0
LINE
  5
27A48
330
1F
100
AcDbEntity
  8
D-STR-DIM（寸法）
  6
Continuous
 62
     7
370
     5
100
AcDbLine
 10
179617.2095268023
 20
95586.30193364184
 30
0.0
 11
179317.2095268024
 21
95586.30193364184
 31
0.0
  0
LINE
  5
27A49
330
1F
100
AcDbEntity
  8
D-STR-DIM（寸法）
  6
Continuous
 62
     7
370
     5
100
AcDbLine
 10
180717.2095268024
 20
95586.30193364184
 30
0.0
 11
181017.2095268023
 21
95586.30193364184
 31
0.0
  0
LINE
  5
27A4D
330
1F
100
AcDbEntity
  8
D-STR-DIM（寸法）
  6
Continuous
 62
     7
370
     5
100
AcDbLine
 10
176917.2095268023
 20
94708.04298364193
 30
0.0
 11
176917.2095268023
 21
95686.30193364183
 31
0.0
  0
LINE
  5
27A4E
330
1F
100
AcDbEntity
  8
D-STR-DIM（寸法）
  6
Continuous
 62
     7
370
     5
100
AcDbLine
 10
179917.2095268023
 20
94708.04298364193
 30
0.0
 11
179917.2095268023
 21
95686.30193364183
 31
0.0
  0
LINE
  5
27A4F
330
1F
100
AcDbEntity
  8
D-STR-DIM（寸法）
  6
Continuous
 62
     7
370
     5
100
AcDbLine
 10
177217.2095268023
 20
95586.30193364184
 30
0.0
 11
179617.2095268023
 21
95586.30193364184
 31
0.0
  0
TEXT
  5
27A53
330
1F
100
AcDbEntity
  8
D-STR-DIM（寸法）
  6
Continuous
 62
     7
100
AcDbText
 10
159930.201109797
 20
77810.55868364188
 30
0.0
 40
350.0
  1
60
  7
ＭＳ ゴシック
100
AcDbText
  0
LINE
  5
27A54
330
1F
100
AcDbEntity
  8
D-STR-DIM（寸法）
  6
Continuous
 62
     7
 48
10.0
100
AcDbLine
 10
159561.165576802
 20
78810.55868364191
 30
0.0
 11
159861.165576802
 21
78760.55868364188
 31
0.0
  0
LINE
  5
27A55
330
1F
100
AcDbEntity
  8
D-STR-DIM（寸法）
  6
Continuous
 62
     7
 48
10.0
100
AcDbLine
 10
159861.165576802
 20
78760.55868364188
 30
0.0
 11
159561.165576802
 21
78710.55868364188
 31
0.0
  0
LINE
  5
27A56
330
1F
100
AcDbEntity
  8
D-STR-DIM（寸法）
  6
Continuous
 62
     7
 48
10.0
100
AcDbLine
 10
159861.165576802
 20
78760.55868364188
 30
0.0
 11
159561.165576802
 21
78760.55868364188
 31
0.0
  0
LINE
  5
27A57
330
1F
100
AcDbEntity
  8
D-STR-DIM（寸法）
  6
Continuous
 62
     7
 48
10.0
100
AcDbLine
 10
160761.1655768019
 20
78710.55868364188
 30
0.0
 11
160461.165576802
 21
78760.55868364188
 31
0.0
  0
LINE
  5
27A58
330
1F
100
AcDbEntity
  8
D-STR-DIM（寸法）
  6
Continuous
 62
     7
 48
10.0
100
AcDbLine
 10
160461.165576802
 20
78760.55868364188
 30
0.0
 11
160761.1655768019
 21
78810.55868364191
 31
0.0
  0
LINE
  5
27A59
330
1F
100
AcDbEntity
  8
D-STR-DIM（寸法）
  6
Continuous
 62
     7
 48
10.0
100
AcDbLine
 10
160461.165576802
 20
78760.55868364188
 30
0.0
 11
160761.1655768019
 21
78760.55868364188
 31
0.0
  0
LINE
  5
27A5A
330
1F
100
AcDbEntity
  8
D-STR-DIM（寸法）
  6
Continuous
 62
     7
 48
10.0
100
AcDbLine
 10
160454.212096624
 20
80105.96623498242
 30
0.0
 11
160658.5209768036
 21
80331.26133364136
 31
0.0
  0
LINE
  5
27A5B
330
1F
100
AcDbEntity
  8
D-STR-DIM（寸法）
  6
Continuous
 62
     7
 48
10.0
100
AcDbLine
 10
160658.5209768036
 20
80331.26133364136
 30
0.0
 11
160538.3245005231
 21
80051.88200890572
 31
0.0
  0
LINE
  5
27A5C
330
1F
100
AcDbEntity
  8
D-STR-DIM（寸法）
  6
Continuous
 62
     7
 48
10.0
100
AcDbLine
 10
160658.5209768036
 20
80331.26133364136
 30
0.0
 11
160496.2682985735
 21
80078.92412194408
 31
0.0
  0
TEXT
  5
27A5D
330
1F
100
AcDbEntity
  8
D-STR-DIM（寸法）
  6
Continuous
 62
     7
100
AcDbText
 10
159836.4471531372
 20
79237.65956133847
 30
0.0
 40
350.0
  1
R50
 50
57.25900639141016
  7
ＭＳ ゴシック
100
AcDbText
  0
LINE
  5
27A5E
330
1F
100
AcDbEntity
  8
D-STR-DIM（寸法）
  6
Continuous
 62
     7
 48
10.0
100
AcDbLine
 10
160761.1655768019
 20
78710.55868364188
 30
0.0
 11
160461.165576802
 21
78760.55868364188
 31
0.0
  0
LINE
  5
27A5F
330
1F
100
AcDbEntity
  8
D-STR-DIM（寸法）
  6
Continuous
 62
     7
 48
10.0
100
AcDbLine
 10
160461.165576802
 20
78760.55868364188
 30
0.0
 11
160761.1655768019
 21
78810.55868364191
 31
0.0
  0
LINE
  5
27A60
330
1F
100
AcDbEntity
  8
D-STR-DIM（寸法）
  6
Continuous
 62
     7
 48
10.0
100
AcDbLine
 10
160461.165576802
 20
78760.55868364188
 30
0.0
 11
160761.1655768019
 21
78760.55868364188
 31
0.0
  0
LINE
  5
27A61
330
1F
100
AcDbEntity
  8
D-STR-DIM（寸法）
  6
Continuous
 62
     7
 48
10.0
100
AcDbLine
 10
157361.165576802
 20
85529.07798364193
 30
0.0
 11
157061.165576802
 21
85579.07798364194
 31
0.0
  0
LINE
  5
27A62
330
1F
100
AcDbEntity
  8
D-STR-DIM（寸法）
  6
Continuous
 62
     7
 48
10.0
100
AcDbLine
 10
157061.165576802
 20
85579.07798364194
 30
0.0
 11
157361.165576802
 21
85629.07798364193
 31
0.0
  0
LINE
  5
27A63
330
1F
100
AcDbEntity
  8
D-STR-DIM（寸法）
  6
Continuous
 62
     7
 48
10.0
100
AcDbLine
 10
157061.165576802
 20
85579.07798364194
 30
0.0
 11
157361.165576802
 21
85579.07798364194
 31
0.0
  0
LINE
  5
27A64
330
1F
100
AcDbEntity
  8
D-STR-DIM（寸法）
  6
Continuous
 62
     7
 48
10.0
100
AcDbLine
 10
160561.165576802
 20
84741.98471504683
 30
0.0
 11
160261.165576802
 21
84791.98471504682
 31
0.0
  0
LINE
  5
27A65
330
1F
100
AcDbEntity
  8
D-STR-DIM（寸法）
  6
Continuous
 62
     7
 48
10.0
100
AcDbLine
 10
160261.165576802
 20
84791.98471504682
 30
0.0
 11
160561.165576802
 21
84841.98471504683
 31
0.0
  0
LINE
  5
27A66
330
1F
100
AcDbEntity
  8
D-STR-DIM（寸法）
  6
Continuous
 62
     7
 48
10.0
100
AcDbLine
 10
160261.165576802
 20
84791.98471504682
 30
0.0
 11
160561.165576802
 21
84791.98471504682
 31
0.0
  0
LINE
  5
27A67
330
1F
100
AcDbEntity
  8
D-STR-DIM（寸法）
  6
Continuous
 62
     7
 48
10.0
100
AcDbLine
 10
159461.165576802
 20
84841.98471504683
 30
0.0
 11
159761.165576802
 21
84791.98471504682
 31
0.0
  0
LINE
  5
27A68
330
1F
100
AcDbEntity
  8
D-STR-DIM（寸法）
  6
Continuous
 62
     7
 48
10.0
100
AcDbLine
 10
159761.165576802
 20
84791.98471504682
 30
0.0
 11
159461.165576802
 21
84741.98471504683
 31
0.0
  0
LINE
  5
27A69
330
1F
100
AcDbEntity
  8
D-STR-DIM（寸法）
  6
Continuous
 62
     7
 48
10.0
100
AcDbLine
 10
159761.165576802
 20
84791.98471504682
 30
0.0
 11
159461.165576802
 21
84791.98471504682
 31
0.0
  0
TEXT
  5
27A6A
330
1F
100
AcDbEntity
  8
D-STR-DIM（寸法）
  6
Continuous
 62
     7
100
AcDbText
 10
159782.8660844163
 20
85041.98471504682
 30
0.0
 40
350.0
  1
50
  7
ＭＳ ゴシック
100
AcDbText
  0
TEXT
  5
27A6B
330
1F
100
AcDbEntity
  8
D-STR-DIM（寸法）
  6
Continuous
 62
     7
100
AcDbText
 10
158068.2721757868
 20
85679.07798364194
 30
0.0
 40
350.0
  1
270
  7
ＭＳ ゴシック
100
AcDbText
  0
LINE
  5
27A6C
330
1F
100
AcDbEntity
  8
D-STR-DIM（寸法）
  6
Continuous
 62
     7
 48
10.0
100
AcDbLine
 10
159461.165576802
 20
85629.07798364193
 30
0.0
 11
159761.165576802
 21
85579.07798364194
 31
0.0
  0
LINE
  5
27A6D
330
1F
100
AcDbEntity
  8
D-STR-DIM（寸法）
  6
Continuous
 62
     7
 48
10.0
100
AcDbLine
 10
159761.165576802
 20
85579.07798364194
 30
0.0
 11
159461.165576802
 21
85529.07798364193
 31
0.0
  0
LINE
  5
27A6E
330
1F
100
AcDbEntity
  8
D-STR-DIM（寸法）
  6
Continuous
 62
     7
 48
10.0
100
AcDbLine
 10
159761.165576802
 20
85579.07798364194
 30
0.0
 11
159461.165576802
 21
85579.07798364194
 31
0.0
  0
LINE
  5
27A6F
330
1F
100
AcDbEntity
  8
D-STR-DIM（寸法）
  6
Continuous
 62
     7
 48
10.0
100
AcDbLine
 10
160561.165576802
 20
84741.98471504683
 30
0.0
 11
160261.165576802
 21
84791.98471504682
 31
0.0
  0
LINE
  5
27A70
330
1F
100
AcDbEntity
  8
D-STR-DIM（寸法）
  6
Continuous
 62
     7
 48
10.0
100
AcDbLine
 10
160261.165576802
 20
84791.98471504682
 30
0.0
 11
160561.165576802
 21
84841.98471504683
 31
0.0
  0
LINE
  5
27A71
330
1F
100
AcDbEntity
  8
D-STR-DIM（寸法）
  6
Continuous
 62
     7
 48
10.0
100
AcDbLine
 10
160261.165576802
 20
84791.98471504682
 30
0.0
 11
160561.165576802
 21
84791.98471504682
 31
0.0
  0
LINE
  5
27A72
330
1F
100
AcDbEntity
  8
D-STR-DIM（寸法）
  6
Continuous
 62
     7
 48
10.0
100
AcDbLine
 10
160061.165576802
 20
85529.07798364193
 30
0.0
 11
159761.165576802
 21
85579.07798364194
 31
0.0
  0
LINE
  5
27A73
330
1F
100
AcDbEntity
  8
D-STR-DIM（寸法）
  6
Continuous
 62
     7
 48
10.0
100
AcDbLine
 10
159761.165576802
 20
85579.07798364194
 30
0.0
 11
160061.165576802
 21
85629.07798364193
 31
0.0
  0
LINE
  5
27A74
330
1F
100
AcDbEntity
  8
D-STR-DIM（寸法）
  6
Continuous
 62
     7
 48
10.0
100
AcDbLine
 10
159761.165576802
 20
85579.07798364194
 30
0.0
 11
160061.165576802
 21
85579.07798364194
 31
0.0
  0
TEXT
  5
27A75
330
1F
100
AcDbEntity
  8
D-STR-DIM（寸法）
  6
Continuous
 62
     7
100
AcDbText
 10
163130.2011097969
 20
77810.55868364188
 30
0.0
 40
350.0
  1
60
  7
ＭＳ ゴシック
100
AcDbText
  0
TEXT
  5
27A76
330
1F
100
AcDbEntity
  8
D-STR-DIM（寸法）
  6
Continuous
 62
     7
100
AcDbText
 10
164598.9501783531
 20
79720.8589166367
 30
0.0
 40
350.0
  1
60
 50
90.0
  7
ＭＳ ゴシック
100
AcDbText
  0
LINE
  5
27A77
330
1F
100
AcDbEntity
  8
D-STR-DIM（寸法）
  6
Continuous
 62
     7
 48
10.0
100
AcDbLine
 10
163961.1655768019
 20
78710.55868364188
 30
0.0
 11
163661.165576802
 21
78760.55868364188
 31
0.0
  0
LINE
  5
27A78
330
1F
100
AcDbEntity
  8
D-STR-DIM（寸法）
  6
Continuous
 62
     7
 48
10.0
100
AcDbLine
 10
163661.165576802
 20
78760.55868364188
 30
0.0
 11
163961.1655768019
 21
78810.55868364191
 31
0.0
  0
LINE
  5
27A79
330
1F
100
AcDbEntity
  8
D-STR-DIM（寸法）
  6
Continuous
 62
     7
 48
10.0
100
AcDbLine
 10
163661.165576802
 20
78760.55868364188
 30
0.0
 11
163961.1655768019
 21
78760.55868364188
 31
0.0
  0
LINE
  5
27A7A
330
1F
100
AcDbEntity
  8
D-STR-DIM（寸法）
  6
Continuous
 62
     7
 48
10.0
100
AcDbLine
 10
162761.165576802
 20
78810.55868364191
 30
0.0
 11
163061.165576802
 21
78760.55868364188
 31
0.0
  0
LINE
  5
27A7B
330
1F
100
AcDbEntity
  8
D-STR-DIM（寸法）
  6
Continuous
 62
     7
 48
10.0
100
AcDbLine
 10
163061.165576802
 20
78760.55868364188
 30
0.0
 11
162761.165576802
 21
78710.55868364188
 31
0.0
  0
LINE
  5
27A7C
330
1F
100
AcDbEntity
  8
D-STR-DIM（寸法）
  6
Continuous
 62
     7
 48
10.0
100
AcDbLine
 10
163061.165576802
 20
78760.55868364188
 30
0.0
 11
162761.165576802
 21
78760.55868364188
 31
0.0
  0
TEXT
  5
27A7D
330
1F
100
AcDbEntity
  8
D-STR-DIM（寸法）
  6
Continuous
 62
     7
100
AcDbText
 10
161418.2721757868
 20
78860.55868364191
 30
0.0
 40
350.0
  1
260
  7
ＭＳ ゴシック
100
AcDbText
  0
LINE
  5
27A7E
330
1F
100
AcDbEntity
  8
D-STR-DIM（寸法）
  6
Continuous
 62
     7
 48
10.0
100
AcDbLine
 10
162761.165576802
 20
78810.55868364191
 30
0.0
 11
163061.165576802
 21
78760.55868364188
 31
0.0
  0
LINE
  5
27A7F
330
1F
100
AcDbEntity
  8
D-STR-DIM（寸法）
  6
Continuous
 62
     7
 48
10.0
100
AcDbLine
 10
163061.165576802
 20
78760.55868364188
 30
0.0
 11
162761.165576802
 21
78710.55868364188
 31
0.0
  0
LINE
  5
27A80
330
1F
100
AcDbEntity
  8
D-STR-DIM（寸法）
  6
Continuous
 62
     7
 48
10.0
100
AcDbLine
 10
163061.165576802
 20
78760.55868364188
 30
0.0
 11
162761.165576802
 21
78760.55868364188
 31
0.0
  0
LINE
  5
27A81
330
1F
100
AcDbEntity
  8
D-STR-DIM（寸法）
  6
Continuous
 62
     7
 48
10.0
100
AcDbLine
 10
164730.262776802
 20
80551.82338364176
 30
0.0
 11
164680.262776802
 21
80251.82338364176
 31
0.0
  0
LINE
  5
27A82
330
1F
100
AcDbEntity
  8
D-STR-DIM（寸法）
  6
Continuous
 62
     7
 48
10.0
100
AcDbLine
 10
164680.262776802
 20
80251.82338364176
 30
0.0
 11
164630.262776802
 21
80551.82338364176
 31
0.0
  0
LINE
  5
27A83
330
1F
100
AcDbEntity
  8
D-STR-DIM（寸法）
  6
Continuous
 62
     7
 48
10.0
100
AcDbLine
 10
164680.262776802
 20
80251.82338364176
 30
0.0
 11
164680.262776802
 21
80551.82338364176
 31
0.0
  0
LINE
  5
27A84
330
1F
100
AcDbEntity
  8
D-STR-DIM（寸法）
  6
Continuous
 62
     7
 48
10.0
100
AcDbLine
 10
164630.262776802
 20
79351.82338364176
 30
0.0
 11
164680.262776802
 21
79651.82338364177
 31
0.0
  0
LINE
  5
27A85
330
1F
100
AcDbEntity
  8
D-STR-DIM（寸法）
  6
Continuous
 62
     7
 48
10.0
100
AcDbLine
 10
164680.262776802
 20
79651.82338364177
 30
0.0
 11
164730.262776802
 21
79351.82338364176
 31
0.0
  0
LINE
  5
27A86
330
1F
100
AcDbEntity
  8
D-STR-DIM（寸法）
  6
Continuous
 62
     7
 48
10.0
100
AcDbLine
 10
164680.262776802
 20
79651.82338364177
 30
0.0
 11
164680.262776802
 21
79351.82338364176
 31
0.0
  0
LINE
  5
27A87
330
1F
100
AcDbEntity
  8
D-STR-DIM（寸法）
  6
Continuous
 62
     7
 48
10.0
100
AcDbLine
 10
164730.262776802
 20
80551.82338364176
 30
0.0
 11
164680.262776802
 21
80251.82338364176
 31
0.0
  0
LINE
  5
27A88
330
1F
100
AcDbEntity
  8
D-STR-DIM（寸法）
  6
Continuous
 62
     7
 48
10.0
100
AcDbLine
 10
164680.262776802
 20
80251.82338364176
 30
0.0
 11
164630.262776802
 21
80551.82338364176
 31
0.0
  0
LINE
  5
27A89
330
1F
100
AcDbEntity
  8
D-STR-DIM（寸法）
  6
Continuous
 62
     7
 48
10.0
100
AcDbLine
 10
164680.262776802
 20
80251.82338364176
 30
0.0
 11
164680.262776802
 21
80551.82338364176
 31
0.0
  0
LINE
  5
27A8A
330
1F
100
AcDbEntity
  8
D-STR-DIM（寸法）
  6
Continuous
 62
     7
 48
10.0
100
AcDbLine
 10
165335.0411768026
 20
79951.82338364176
 30
0.0
 11
165285.0411768026
 21
79651.82338364177
 31
0.0
  0
LINE
  5
27A8B
330
1F
100
AcDbEntity
  8
D-STR-DIM（寸法）
  6
Continuous
 62
     7
 48
10.0
100
AcDbLine
 10
165285.0411768026
 20
79651.82338364177
 30
0.0
 11
165235.0411768026
 21
79951.82338364176
 31
0.0
  0
LINE
  5
27A8C
330
1F
100
AcDbEntity
  8
D-STR-DIM（寸法）
  6
Continuous
 62
     7
 48
10.0
100
AcDbLine
 10
165285.0411768026
 20
79651.82338364177
 30
0.0
 11
165285.0411768026
 21
79951.82338364176
 31
0.0
  0
LINE
  5
27A8D
330
1F
100
AcDbEntity
  8
D-STR-DIM（寸法）
  6
Continuous
 62
     7
 48
10.0
100
AcDbLine
 10
169021.6248268019
 20
80551.82338364177
 30
0.0
 11
168971.6248268019
 21
80251.82338364178
 31
0.0
  0
LINE
  5
27A8E
330
1F
100
AcDbEntity
  8
D-STR-DIM（寸法）
  6
Continuous
 62
     7
 48
10.0
100
AcDbLine
 10
168971.6248268019
 20
80251.82338364178
 30
0.0
 11
168921.6248268019
 21
80551.82338364177
 31
0.0
  0
LINE
  5
27A8F
330
1F
100
AcDbEntity
  8
D-STR-DIM（寸法）
  6
Continuous
 62
     7
 48
10.0
100
AcDbLine
 10
168971.6248268019
 20
80251.82338364178
 30
0.0
 11
168971.6248268019
 21
80551.82338364177
 31
0.0
  0
LINE
  5
27A90
330
1F
100
AcDbEntity
  8
D-STR-DIM（寸法）
  6
Continuous
 62
     7
 48
10.0
100
AcDbLine
 10
168921.6248268019
 20
79351.82338364178
 30
0.0
 11
168971.6248268019
 21
79651.82338364177
 31
0.0
  0
LINE
  5
27A91
330
1F
100
AcDbEntity
  8
D-STR-DIM（寸法）
  6
Continuous
 62
     7
 48
10.0
100
AcDbLine
 10
168971.6248268019
 20
79651.82338364177
 30
0.0
 11
169021.6248268019
 21
79351.82338364178
 31
0.0
  0
LINE
  5
27A92
330
1F
100
AcDbEntity
  8
D-STR-DIM（寸法）
  6
Continuous
 62
     7
 48
10.0
100
AcDbLine
 10
168971.6248268019
 20
79651.82338364177
 30
0.0
 11
168971.6248268019
 21
79351.82338364178
 31
0.0
  0
TEXT
  5
27A93
330
1F
100
AcDbEntity
  8
D-STR-DIM（寸法）
  6
Continuous
 62
     7
100
AcDbText
 10
168721.6248268018
 20
79720.85891663673
 30
0.0
 40
350.0
  1
60
 50
90.0
  7
ＭＳ ゴシック
100
AcDbText
  0
LINE
  5
27A94
330
1F
100
AcDbEntity
  8
D-STR-DIM（寸法）
  6
Continuous
 62
     7
 48
10.0
100
AcDbLine
 10
169021.6248268019
 20
80551.82338364177
 30
0.0
 11
168971.6248268019
 21
80251.82338364178
 31
0.0
  0
LINE
  5
27A95
330
1F
100
AcDbEntity
  8
D-STR-DIM（寸法）
  6
Continuous
 62
     7
 48
10.0
100
AcDbLine
 10
168971.6248268019
 20
80251.82338364178
 30
0.0
 11
168921.6248268019
 21
80551.82338364177
 31
0.0
  0
LINE
  5
27A96
330
1F
100
AcDbEntity
  8
D-STR-DIM（寸法）
  6
Continuous
 62
     7
 48
10.0
100
AcDbLine
 10
168971.6248268019
 20
80251.82338364178
 30
0.0
 11
168971.6248268019
 21
80551.82338364177
 31
0.0
  0
LINE
  5
27A97
330
1F
100
AcDbEntity
  8
D-STR-DIM（寸法）
  6
Continuous
 62
     7
 48
10.0
100
AcDbLine
 10
170717.2095268024
 20
78347.91438364191
 30
0.0
 11
170417.2095268023
 21
78397.91438364191
 31
0.0
  0
LINE
  5
27A98
330
1F
100
AcDbEntity
  8
D-STR-DIM（寸法）
  6
Continuous
 62
     7
 48
10.0
100
AcDbLine
 10
170417.2095268023
 20
78397.91438364191
 30
0.0
 11
170717.2095268024
 21
78447.91438364191
 31
0.0
  0
LINE
  5
27A99
330
1F
100
AcDbEntity
  8
D-STR-DIM（寸法）
  6
Continuous
 62
     7
 48
10.0
100
AcDbLine
 10
170417.2095268023
 20
78397.91438364191
 30
0.0
 11
170717.2095268024
 21
78397.91438364191
 31
0.0
  0
TEXT
  5
27A9A
330
1F
100
AcDbEntity
  8
D-STR-DIM（寸法）
  6
Continuous
 62
     7
100
AcDbText
 10
164580.2627768019
 20
81409.81830749966
 30
0.0
 40
350.0
  1
300
 50
90.0
  7
ＭＳ ゴシック
100
AcDbText
  0
LINE
  5
27A9B
330
1F
100
AcDbEntity
  8
D-STR-DIM（寸法）
  6
Continuous
 62
     7
 48
10.0
100
AcDbLine
 10
164630.262776802
 20
82951.82338364176
 30
0.0
 11
164680.262776802
 21
83251.82338364177
 31
0.0
  0
LINE
  5
27A9C
330
1F
100
AcDbEntity
  8
D-STR-DIM（寸法）
  6
Continuous
 62
     7
 48
10.0
100
AcDbLine
 10
164680.262776802
 20
83251.82338364177
 30
0.0
 11
164730.262776802
 21
82951.82338364176
 31
0.0
  0
LINE
  5
27A9D
330
1F
100
AcDbEntity
  8
D-STR-DIM（寸法）
  6
Continuous
 62
     7
 48
10.0
100
AcDbLine
 10
164680.262776802
 20
83251.82338364177
 30
0.0
 11
164680.262776802
 21
82951.82338364176
 31
0.0
  0
TEXT
  5
27A9E
330
1F
100
AcDbEntity
  8
D-STR-DIM（寸法）
  6
Continuous
 62
     7
100
AcDbText
 10
165185.0411768026
 20
81109.81830749969
 30
0.0
 40
350.0
  1
360
 50
90.0
  7
ＭＳ ゴシック
100
AcDbText
  0
LINE
  5
27A9F
330
1F
100
AcDbEntity
  8
D-STR-DIM（寸法）
  6
Continuous
 62
     7
 48
10.0
100
AcDbLine
 10
165235.0411768026
 20
82951.82338364176
 30
0.0
 11
165285.0411768026
 21
83251.82338364177
 31
0.0
  0
LINE
  5
27AA0
330
1F
100
AcDbEntity
  8
D-STR-DIM（寸法）
  6
Continuous
 62
     7
 48
10.0
100
AcDbLine
 10
165285.0411768026
 20
83251.82338364177
 30
0.0
 11
165335.0411768026
 21
82951.82338364176
 31
0.0
  0
LINE
  5
27AA1
330
1F
100
AcDbEntity
  8
D-STR-DIM（寸法）
  6
Continuous
 62
     7
 48
10.0
100
AcDbLine
 10
165285.0411768026
 20
83251.82338364177
 30
0.0
 11
165285.0411768026
 21
82951.82338364176
 31
0.0
  0
LINE
  5
27AA2
330
1F
100
AcDbEntity
  8
D-STR-DIM（寸法）
  6
Continuous
 62
     7
 48
10.0
100
AcDbLine
 10
164061.1655768021
 20
84741.98471504683
 30
0.0
 11
163761.165576802
 21
84791.98471504682
 31
0.0
  0
LINE
  5
27AA3
330
1F
100
AcDbEntity
  8
D-STR-DIM（寸法）
  6
Continuous
 62
     7
 48
10.0
100
AcDbLine
 10
163761.165576802
 20
84791.98471504682
 30
0.0
 11
164061.1655768021
 21
84841.98471504683
 31
0.0
  0
LINE
  5
27AA4
330
1F
100
AcDbEntity
  8
D-STR-DIM（寸法）
  6
Continuous
 62
     7
 48
10.0
100
AcDbLine
 10
163761.165576802
 20
84791.98471504682
 30
0.0
 11
164061.1655768021
 21
84791.98471504682
 31
0.0
  0
LINE
  5
27AA5
330
1F
100
AcDbEntity
  8
D-STR-DIM（寸法）
  6
Continuous
 62
     7
 48
10.0
100
AcDbLine
 10
162961.165576802
 20
84841.98471504683
 30
0.0
 11
163261.165576802
 21
84791.98471504682
 31
0.0
  0
LINE
  5
27AA6
330
1F
100
AcDbEntity
  8
D-STR-DIM（寸法）
  6
Continuous
 62
     7
 48
10.0
100
AcDbLine
 10
163261.165576802
 20
84791.98471504682
 30
0.0
 11
162961.165576802
 21
84741.98471504683
 31
0.0
  0
LINE
  5
27AA7
330
1F
100
AcDbEntity
  8
D-STR-DIM（寸法）
  6
Continuous
 62
     7
 48
10.0
100
AcDbLine
 10
163261.165576802
 20
84791.98471504682
 30
0.0
 11
162961.165576802
 21
84791.98471504682
 31
0.0
  0
TEXT
  5
27AA8
330
1F
100
AcDbEntity
  8
D-STR-DIM（寸法）
  6
Continuous
 62
     7
100
AcDbText
 10
163282.8660844163
 20
85041.98471504682
 30
0.0
 40
350.0
  1
50
  7
ＭＳ ゴシック
100
AcDbText
  0
TEXT
  5
27AA9
330
1F
100
AcDbEntity
  8
D-STR-DIM（寸法）
  6
Continuous
 62
     7
100
AcDbText
 10
161419.1605006599
 20
84891.98471504682
 30
0.0
 40
350.0
  1
300
  7
ＭＳ ゴシック
100
AcDbText
  0
LINE
  5
27AAA
330
1F
100
AcDbEntity
  8
D-STR-DIM（寸法）
  6
Continuous
 62
     7
 48
10.0
100
AcDbLine
 10
162961.165576802
 20
84841.98471504683
 30
0.0
 11
163261.165576802
 21
84791.98471504682
 31
0.0
  0
LINE
  5
27AAB
330
1F
100
AcDbEntity
  8
D-STR-DIM（寸法）
  6
Continuous
 62
     7
 48
10.0
100
AcDbLine
 10
163261.165576802
 20
84791.98471504682
 30
0.0
 11
162961.165576802
 21
84741.98471504683
 31
0.0
  0
LINE
  5
27AAC
330
1F
100
AcDbEntity
  8
D-STR-DIM（寸法）
  6
Continuous
 62
     7
 48
10.0
100
AcDbLine
 10
163261.165576802
 20
84791.98471504682
 30
0.0
 11
162961.165576802
 21
84791.98471504682
 31
0.0
  0
TEXT
  5
27AAD
330
1F
100
AcDbEntity
  8
D-STR-DIM（寸法）
  6
Continuous
 62
     7
100
AcDbText
 10
161421.8254752792
 20
85679.07798364194
 30
0.0
 40
350.0
  1
400
  7
ＭＳ ゴシック
100
AcDbText
  0
LINE
  5
27AAE
330
1F
100
AcDbEntity
  8
D-STR-DIM（寸法）
  6
Continuous
 62
     7
 48
10.0
100
AcDbLine
 10
163461.165576802
 20
85629.07798364193
 30
0.0
 11
163761.165576802
 21
85579.07798364194
 31
0.0
  0
LINE
  5
27AAF
330
1F
100
AcDbEntity
  8
D-STR-DIM（寸法）
  6
Continuous
 62
     7
 48
10.0
100
AcDbLine
 10
163761.165576802
 20
85579.07798364194
 30
0.0
 11
163461.165576802
 21
85529.07798364193
 31
0.0
  0
LINE
  5
27AB0
330
1F
100
AcDbEntity
  8
D-STR-DIM（寸法）
  6
Continuous
 62
     7
 48
10.0
100
AcDbLine
 10
163761.165576802
 20
85579.07798364194
 30
0.0
 11
163461.165576802
 21
85579.07798364194
 31
0.0
  0
TEXT
  5
27AB1
330
1F
100
AcDbEntity
  8
D-STR-DIM（寸法）
  6
Continuous
 62
     7
100
AcDbText
 10
168871.6248268018
 20
81409.81830749968
 30
0.0
 40
350.0
  1
300
 50
90.0
  7
ＭＳ ゴシック
100
AcDbText
  0
LINE
  5
27AB2
330
1F
100
AcDbEntity
  8
D-STR-DIM（寸法）
  6
Continuous
 62
     7
 48
10.0
100
AcDbLine
 10
168921.6248268019
 20
82951.82338364178
 30
0.0
 11
168971.6248268019
 21
83251.82338364177
 31
0.0
  0
LINE
  5
27AB3
330
1F
100
AcDbEntity
  8
D-STR-DIM（寸法）
  6
Continuous
 62
     7
 48
10.0
100
AcDbLine
 10
168971.6248268019
 20
83251.82338364177
 30
0.0
 11
169021.6248268019
 21
82951.82338364178
 31
0.0
  0
LINE
  5
27AB4
330
1F
100
AcDbEntity
  8
D-STR-DIM（寸法）
  6
Continuous
 62
     7
 48
10.0
100
AcDbLine
 10
168971.6248268019
 20
83251.82338364177
 30
0.0
 11
168971.6248268019
 21
82951.82338364178
 31
0.0
  0
LINE
  5
27AB5
330
1F
100
AcDbEntity
  8
D-STR-DIM（寸法）
  6
Continuous
 62
     7
 48
10.0
100
AcDbLine
 10
171217.2095268023
 20
85529.07798364193
 30
0.0
 11
170917.2095268024
 21
85579.07798364194
 31
0.0
  0
LINE
  5
27AB6
330
1F
100
AcDbEntity
  8
D-STR-DIM（寸法）
  6
Continuous
 62
     7
 48
10.0
100
AcDbLine
 10
170917.2095268024
 20
85579.07798364194
 30
0.0
 11
171217.2095268023
 21
85629.07798364193
 31
0.0
  0
LINE
  5
27AB7
330
1F
100
AcDbEntity
  8
D-STR-DIM（寸法）
  6
Continuous
 62
     7
 48
10.0
100
AcDbLine
 10
170917.2095268024
 20
85579.07798364194
 30
0.0
 11
171217.2095268023
 21
85579.07798364194
 31
0.0
  0
LINE
  5
27AB8
330
1F
100
AcDbEntity
  8
D-STR-DIM（寸法）
  6
Continuous
 62
     7
 48
10.0
100
AcDbLine
 10
170117.2095268023
 20
85629.07798364193
 30
0.0
 11
170417.2095268023
 21
85579.07798364194
 31
0.0
  0
LINE
  5
27AB9
330
1F
100
AcDbEntity
  8
D-STR-DIM（寸法）
  6
Continuous
 62
     7
 48
10.0
100
AcDbLine
 10
170417.2095268023
 20
85579.07798364194
 30
0.0
 11
170117.2095268023
 21
85529.07798364193
 31
0.0
  0
LINE
  5
27ABA
330
1F
100
AcDbEntity
  8
D-STR-DIM（寸法）
  6
Continuous
 62
     7
 48
10.0
100
AcDbLine
 10
170417.2095268023
 20
85579.07798364194
 30
0.0
 11
170117.2095268023
 21
85579.07798364194
 31
0.0
  0
TEXT
  5
27ABB
330
1F
100
AcDbEntity
  8
D-STR-DIM（寸法）
  6
Continuous
 62
     7
100
AcDbText
 10
170438.9100344166
 20
85829.07798364194
 30
0.0
 40
350.0
  1
50
  7
ＭＳ ゴシック
100
AcDbText
  0
LINE
  5
27ABC
330
1F
100
AcDbEntity
  8
D-STR-DIM（寸法）
  6
Continuous
 62
     7
 48
10.0
100
AcDbLine
 10
171217.2095268023
 20
85529.07798364193
 30
0.0
 11
170917.2095268024
 21
85579.07798364194
 31
0.0
  0
LINE
  5
27ABD
330
1F
100
AcDbEntity
  8
D-STR-DIM（寸法）
  6
Continuous
 62
     7
 48
10.0
100
AcDbLine
 10
170917.2095268024
 20
85579.07798364194
 30
0.0
 11
171217.2095268023
 21
85629.07798364193
 31
0.0
  0
LINE
  5
27ABE
330
1F
100
AcDbEntity
  8
D-STR-DIM（寸法）
  6
Continuous
 62
     7
 48
10.0
100
AcDbLine
 10
170917.2095268024
 20
85579.07798364194
 30
0.0
 11
171217.2095268023
 21
85579.07798364194
 31
0.0
  0
TEXT
  5
27ABF
330
1F
100
AcDbEntity
  8
D-STR-DIM（寸法）
  6
Continuous
 62
     7
100
AcDbText
 10
173572.5394760409
 20
85679.07798364194
 30
0.0
 40
350.0
  1
600
  7
ＭＳ ゴシック
100
AcDbText
  0
TEXT
  5
27AC0
330
1F
100
AcDbEntity
  8
D-STR-DIM（寸法）
  6
Continuous
 62
     7
100
AcDbText
 10
168434.6085268016
 20
89518.70288211916
 30
0.0
 40
350.0
  1
400
 50
90.0
  7
ＭＳ ゴシック
100
AcDbText
  0
LINE
  5
27AC1
330
1F
100
AcDbEntity
  8
D-STR-DIM（寸法）
  6
Continuous
 62
     7
 48
10.0
100
AcDbLine
 10
168584.6085268016
 20
88158.04298364199
 30
0.0
 11
168534.6085268016
 21
87858.04298364196
 31
0.0
  0
LINE
  5
27AC2
330
1F
100
AcDbEntity
  8
D-STR-DIM（寸法）
  6
Continuous
 62
     7
 48
10.0
100
AcDbLine
 10
168534.6085268016
 20
87858.04298364196
 30
0.0
 11
168484.6085268016
 21
88158.04298364199
 31
0.0
  0
LINE
  5
27AC3
330
1F
100
AcDbEntity
  8
D-STR-DIM（寸法）
  6
Continuous
 62
     7
 48
10.0
100
AcDbLine
 10
168534.6085268016
 20
87858.04298364196
 30
0.0
 11
168534.6085268016
 21
88158.04298364199
 31
0.0
  0
LINE
  5
27AC4
330
1F
100
AcDbEntity
  8
D-STR-DIM（寸法）
  6
Continuous
 62
     7
 48
10.0
100
AcDbLine
 10
168484.6085268016
 20
91558.04298364195
 30
0.0
 11
168534.6085268016
 21
91858.04298364194
 31
0.0
  0
LINE
  5
27AC5
330
1F
100
AcDbEntity
  8
D-STR-DIM（寸法）
  6
Continuous
 62
     7
 48
10.0
100
AcDbLine
 10
168534.6085268016
 20
91858.04298364194
 30
0.0
 11
168584.6085268016
 21
91558.04298364195
 31
0.0
  0
LINE
  5
27AC6
330
1F
100
AcDbEntity
  8
D-STR-DIM（寸法）
  6
Continuous
 62
     7
 48
10.0
100
AcDbLine
 10
168534.6085268016
 20
91858.04298364194
 30
0.0
 11
168534.6085268016
 21
91558.04298364195
 31
0.0
  0
LINE
  5
27AC7
330
1F
100
AcDbEntity
  8
D-STR-DIM（寸法）
  6
Continuous
 62
     7
 48
10.0
100
AcDbLine
 10
168584.6085268016
 20
92158.04298364195
 30
0.0
 11
168534.6085268016
 21
91858.04298364194
 31
0.0
  0
LINE
  5
27AC8
330
1F
100
AcDbEntity
  8
D-STR-DIM（寸法）
  6
Continuous
 62
     7
 48
10.0
100
AcDbLine
 10
168534.6085268016
 20
91858.04298364194
 30
0.0
 11
168484.6085268016
 21
92158.04298364195
 31
0.0
  0
LINE
  5
27AC9
330
1F
100
AcDbEntity
  8
D-STR-DIM（寸法）
  6
Continuous
 62
     7
 48
10.0
100
AcDbLine
 10
168534.6085268016
 20
91858.04298364194
 30
0.0
 11
168534.6085268016
 21
92158.04298364195
 31
0.0
  0
TEXT
  5
27ACA
330
1F
100
AcDbEntity
  8
D-STR-DIM（寸法）
  6
Continuous
 62
     7
100
AcDbText
 10
173572.5394760409
 20
95686.30193364183
 30
0.0
 40
350.0
  1
600
  7
ＭＳ ゴシック
100
AcDbText
  0
LINE
  5
27ACB
330
1F
100
AcDbEntity
  8
D-STR-DIM（寸法）
  6
Continuous
 62
     7
 48
10.0
100
AcDbLine
 10
171217.2095268023
 20
95536.30193364183
 30
0.0
 11
170917.2095268024
 21
95586.30193364184
 31
0.0
  0
LINE
  5
27ACC
330
1F
100
AcDbEntity
  8
D-STR-DIM（寸法）
  6
Continuous
 62
     7
 48
10.0
100
AcDbLine
 10
170917.2095268024
 20
95586.30193364184
 30
0.0
 11
171217.2095268023
 21
95636.30193364184
 31
0.0
  0
LINE
  5
27ACD
330
1F
100
AcDbEntity
  8
D-STR-DIM（寸法）
  6
Continuous
 62
     7
 48
10.0
100
AcDbLine
 10
170917.2095268024
 20
95586.30193364184
 30
0.0
 11
171217.2095268023
 21
95586.30193364184
 31
0.0
  0
LINE
  5
27ACE
330
1F
100
AcDbEntity
  8
D-STR-DIM（寸法）
  6
Continuous
 62
     7
 48
10.0
100
AcDbLine
 10
170117.2095268023
 20
95636.30193364184
 30
0.0
 11
170417.2095268023
 21
95586.30193364184
 31
0.0
  0
LINE
  5
27ACF
330
1F
100
AcDbEntity
  8
D-STR-DIM（寸法）
  6
Continuous
 62
     7
 48
10.0
100
AcDbLine
 10
170417.2095268023
 20
95586.30193364184
 30
0.0
 11
170117.2095268023
 21
95536.30193364183
 31
0.0
  0
LINE
  5
27AD0
330
1F
100
AcDbEntity
  8
D-STR-DIM（寸法）
  6
Continuous
 62
     7
 48
10.0
100
AcDbLine
 10
170417.2095268023
 20
95586.30193364184
 30
0.0
 11
170117.2095268023
 21
95586.30193364184
 31
0.0
  0
TEXT
  5
27AD1
330
1F
100
AcDbEntity
  8
D-STR-DIM（寸法）
  6
Continuous
 62
     7
100
AcDbText
 10
168434.6085268016
 20
92865.14958262676
 30
0.0
 40
350.0
  1
270
 50
90.0
  7
ＭＳ ゴシック
100
AcDbText
  0
LINE
  5
27AD2
330
1F
100
AcDbEntity
  8
D-STR-DIM（寸法）
  6
Continuous
 62
     7
 48
10.0
100
AcDbLine
 10
168484.6085268016
 20
94258.04298364194
 30
0.0
 11
168534.6085268016
 21
94558.04298364196
 31
0.0
  0
LINE
  5
27AD3
330
1F
100
AcDbEntity
  8
D-STR-DIM（寸法）
  6
Continuous
 62
     7
 48
10.0
100
AcDbLine
 10
168534.6085268016
 20
94558.04298364196
 30
0.0
 11
168584.6085268016
 21
94258.04298364194
 31
0.0
  0
LINE
  5
27AD4
330
1F
100
AcDbEntity
  8
D-STR-DIM（寸法）
  6
Continuous
 62
     7
 48
10.0
100
AcDbLine
 10
168534.6085268016
 20
94558.04298364196
 30
0.0
 11
168534.6085268016
 21
94258.04298364194
 31
0.0
  0
LINE
  5
27AD5
330
1F
100
AcDbEntity
  8
D-STR-DIM（寸法）
  6
Continuous
 62
     7
 48
10.0
100
AcDbLine
 10
171217.2095268023
 20
95536.30193364183
 30
0.0
 11
170917.2095268024
 21
95586.30193364184
 31
0.0
  0
LINE
  5
27AD6
330
1F
100
AcDbEntity
  8
D-STR-DIM（寸法）
  6
Continuous
 62
     7
 48
10.0
100
AcDbLine
 10
170917.2095268024
 20
95586.30193364184
 30
0.0
 11
171217.2095268023
 21
95636.30193364184
 31
0.0
  0
LINE
  5
27AD7
330
1F
100
AcDbEntity
  8
D-STR-DIM（寸法）
  6
Continuous
 62
     7
 48
10.0
100
AcDbLine
 10
170917.2095268024
 20
95586.30193364184
 30
0.0
 11
171217.2095268023
 21
95586.30193364184
 31
0.0
  0
TEXT
  5
27AD8
330
1F
100
AcDbEntity
  8
D-STR-DIM（寸法）
  6
Continuous
 62
     7
100
AcDbText
 10
170438.9100344166
 20
95836.30193364184
 30
0.0
 40
350.0
  1
50
  7
ＭＳ ゴシック
100
AcDbText
  0
LINE
  5
27AD9
330
1F
100
AcDbEntity
  8
D-STR-DIM（寸法）
  6
Continuous
 62
     7
 48
10.0
100
AcDbLine
 10
170717.2095268024
 20
96711.27758364193
 30
0.0
 11
170417.2095268023
 21
96761.27758364193
 31
0.0
  0
LINE
  5
27ADA
330
1F
100
AcDbEntity
  8
D-STR-DIM（寸法）
  6
Continuous
 62
     7
 48
10.0
100
AcDbLine
 10
170417.2095268023
 20
96761.27758364193
 30
0.0
 11
170717.2095268024
 21
96811.27758364192
 31
0.0
  0
LINE
  5
27ADB
330
1F
100
AcDbEntity
  8
D-STR-DIM（寸法）
  6
Continuous
 62
     7
 48
10.0
100
AcDbLine
 10
170417.2095268023
 20
96761.27758364193
 30
0.0
 11
170717.2095268024
 21
96761.27758364193
 31
0.0
  0
TEXT
  5
27ADC
330
1F
100
AcDbEntity
  8
D-STR-DIM（寸法）
  6
Continuous
 62
     7
100
AcDbText
 10
174949.0623186805
 20
78497.91438364191
 30
0.0
 40
350.0
  1
1000
  7
ＭＳ ゴシック
100
AcDbText
  0
LINE
  5
27ADD
330
1F
100
AcDbEntity
  8
D-STR-DIM（寸法）
  6
Continuous
 62
     7
 48
10.0
100
AcDbLine
 10
180117.2095268023
 20
78447.91438364191
 30
0.0
 11
180417.2095268024
 21
78397.91438364191
 31
0.0
  0
LINE
  5
27ADE
330
1F
100
AcDbEntity
  8
D-STR-DIM（寸法）
  6
Continuous
 62
     7
 48
10.0
100
AcDbLine
 10
180417.2095268024
 20
78397.91438364191
 30
0.0
 11
180117.2095268023
 21
78347.91438364191
 31
0.0
  0
LINE
  5
27ADF
330
1F
100
AcDbEntity
  8
D-STR-DIM（寸法）
  6
Continuous
 62
     7
 48
10.0
100
AcDbLine
 10
180417.2095268024
 20
78397.91438364191
 30
0.0
 11
180117.2095268023
 21
78397.91438364191
 31
0.0
  0
TEXT
  5
27AE0
330
1F
100
AcDbEntity
  8
D-STR-DIM（寸法）
  6
Continuous
 62
     7
100
AcDbText
 10
178075.2044506602
 20
85679.07798364194
 30
0.0
 40
350.0
  1
300
  7
ＭＳ ゴシック
100
AcDbText
  0
LINE
  5
27AE1
330
1F
100
AcDbEntity
  8
D-STR-DIM（寸法）
  6
Continuous
 62
     7
 48
10.0
100
AcDbLine
 10
177217.2095268023
 20
85529.07798364193
 30
0.0
 11
176917.2095268023
 21
85579.07798364194
 31
0.0
  0
LINE
  5
27AE2
330
1F
100
AcDbEntity
  8
D-STR-DIM（寸法）
  6
Continuous
 62
     7
 48
10.0
100
AcDbLine
 10
176917.2095268023
 20
85579.07798364194
 30
0.0
 11
177217.2095268023
 21
85629.07798364193
 31
0.0
  0
LINE
  5
27AE3
330
1F
100
AcDbEntity
  8
D-STR-DIM（寸法）
  6
Continuous
 62
     7
 48
10.0
100
AcDbLine
 10
176917.2095268023
 20
85579.07798364194
 30
0.0
 11
177217.2095268023
 21
85579.07798364194
 31
0.0
  0
LINE
  5
27AE4
330
1F
100
AcDbEntity
  8
D-STR-DIM（寸法）
  6
Continuous
 62
     7
 48
10.0
100
AcDbLine
 10
176617.2095268023
 20
85629.07798364193
 30
0.0
 11
176917.2095268023
 21
85579.07798364194
 31
0.0
  0
LINE
  5
27AE5
330
1F
100
AcDbEntity
  8
D-STR-DIM（寸法）
  6
Continuous
 62
     7
 48
10.0
100
AcDbLine
 10
176917.2095268023
 20
85579.07798364194
 30
0.0
 11
176617.2095268023
 21
85529.07798364193
 31
0.0
  0
LINE
  5
27AE6
330
1F
100
AcDbEntity
  8
D-STR-DIM（寸法）
  6
Continuous
 62
     7
 48
10.0
100
AcDbLine
 10
176917.2095268023
 20
85579.07798364194
 30
0.0
 11
176617.2095268023
 21
85579.07798364194
 31
0.0
  0
LINE
  5
27AE7
330
1F
100
AcDbEntity
  8
D-STR-DIM（寸法）
  6
Continuous
 62
     7
 48
10.0
100
AcDbLine
 10
179617.2095268023
 20
85629.07798364193
 30
0.0
 11
179917.2095268023
 21
85579.07798364194
 31
0.0
  0
LINE
  5
27AE8
330
1F
100
AcDbEntity
  8
D-STR-DIM（寸法）
  6
Continuous
 62
     7
 48
10.0
100
AcDbLine
 10
179917.2095268023
 20
85579.07798364194
 30
0.0
 11
179617.2095268023
 21
85529.07798364193
 31
0.0
  0
LINE
  5
27AE9
330
1F
100
AcDbEntity
  8
D-STR-DIM（寸法）
  6
Continuous
 62
     7
 48
10.0
100
AcDbLine
 10
179917.2095268023
 20
85579.07798364194
 30
0.0
 11
179617.2095268023
 21
85579.07798364194
 31
0.0
  0
LINE
  5
27AEA
330
1F
100
AcDbEntity
  8
D-STR-DIM（寸法）
  6
Continuous
 62
     7
 48
10.0
100
AcDbLine
 10
180217.2095268024
 20
84741.98471504683
 30
0.0
 11
179917.2095268023
 21
84791.98471504682
 31
0.0
  0
LINE
  5
27AEB
330
1F
100
AcDbEntity
  8
D-STR-DIM（寸法）
  6
Continuous
 62
     7
 48
10.0
100
AcDbLine
 10
179917.2095268023
 20
84791.98471504682
 30
0.0
 11
180217.2095268024
 21
84841.98471504683
 31
0.0
  0
LINE
  5
27AEC
330
1F
100
AcDbEntity
  8
D-STR-DIM（寸法）
  6
Continuous
 62
     7
 48
10.0
100
AcDbLine
 10
179917.2095268023
 20
84791.98471504682
 30
0.0
 11
180217.2095268024
 21
84791.98471504682
 31
0.0
  0
LINE
  5
27AED
330
1F
100
AcDbEntity
  8
D-STR-DIM（寸法）
  6
Continuous
 62
     7
 48
10.0
100
AcDbLine
 10
179417.2095268023
 20
84841.98471504683
 30
0.0
 11
179717.2095268023
 21
84791.98471504682
 31
0.0
  0
LINE
  5
27AEE
330
1F
100
AcDbEntity
  8
D-STR-DIM（寸法）
  6
Continuous
 62
     7
 48
10.0
100
AcDbLine
 10
179717.2095268023
 20
84791.98471504682
 30
0.0
 11
179417.2095268023
 21
84741.98471504683
 31
0.0
  0
LINE
  5
27AEF
330
1F
100
AcDbEntity
  8
D-STR-DIM（寸法）
  6
Continuous
 62
     7
 48
10.0
100
AcDbLine
 10
179717.2095268023
 20
84791.98471504682
 30
0.0
 11
179417.2095268023
 21
84791.98471504682
 31
0.0
  0
TEXT
  5
27AF0
330
1F
100
AcDbEntity
  8
D-STR-DIM（寸法）
  6
Continuous
 62
     7
100
AcDbText
 10
179588.0217095435
 20
85041.98471504682
 30
0.0
 40
350.0
  1
20
  7
ＭＳ ゴシック
100
AcDbText
  0
LINE
  5
27AF1
330
1F
100
AcDbEntity
  8
D-STR-DIM（寸法）
  6
Continuous
 62
     7
 48
10.0
100
AcDbLine
 10
180717.2095268024
 20
85529.07798364193
 30
0.0
 11
180417.2095268024
 21
85579.07798364194
 31
0.0
  0
LINE
  5
27AF2
330
1F
100
AcDbEntity
  8
D-STR-DIM（寸法）
  6
Continuous
 62
     7
 48
10.0
100
AcDbLine
 10
180417.2095268024
 20
85579.07798364194
 30
0.0
 11
180717.2095268024
 21
85629.07798364193
 31
0.0
  0
LINE
  5
27AF3
330
1F
100
AcDbEntity
  8
D-STR-DIM（寸法）
  6
Continuous
 62
     7
 48
10.0
100
AcDbLine
 10
180417.2095268024
 20
85579.07798364194
 30
0.0
 11
180717.2095268024
 21
85579.07798364194
 31
0.0
  0
LINE
  5
27AF4
330
1F
100
AcDbEntity
  8
D-STR-DIM（寸法）
  6
Continuous
 62
     7
 48
10.0
100
AcDbLine
 10
179617.2095268023
 20
85629.07798364193
 30
0.0
 11
179917.2095268023
 21
85579.07798364194
 31
0.0
  0
LINE
  5
27AF5
330
1F
100
AcDbEntity
  8
D-STR-DIM（寸法）
  6
Continuous
 62
     7
 48
10.0
100
AcDbLine
 10
179917.2095268023
 20
85579.07798364194
 30
0.0
 11
179617.2095268023
 21
85529.07798364193
 31
0.0
  0
LINE
  5
27AF6
330
1F
100
AcDbEntity
  8
D-STR-DIM（寸法）
  6
Continuous
 62
     7
 48
10.0
100
AcDbLine
 10
179917.2095268023
 20
85579.07798364194
 30
0.0
 11
179617.2095268023
 21
85579.07798364194
 31
0.0
  0
TEXT
  5
27AF7
330
1F
100
AcDbEntity
  8
D-STR-DIM（寸法）
  6
Continuous
 62
     7
100
AcDbText
 10
179938.9100344166
 20
85829.07798364194
 30
0.0
 40
350.0
  1
50
  7
ＭＳ ゴシック
100
AcDbText
  0
TEXT
  5
27AF8
330
1F
100
AcDbEntity
  8
D-STR-DIM（寸法）
  6
Continuous
 62
     7
100
AcDbText
 10
178075.2044506602
 20
95686.30193364183
 30
0.0
 40
350.0
  1
300
  7
ＭＳ ゴシック
100
AcDbText
  0
LINE
  5
27AF9
330
1F
100
AcDbEntity
  8
D-STR-DIM（寸法）
  6
Continuous
 62
     7
 48
10.0
100
AcDbLine
 10
177217.2095268023
 20
95536.30193364183
 30
0.0
 11
176917.2095268023
 21
95586.30193364184
 31
0.0
  0
LINE
  5
27AFA
330
1F
100
AcDbEntity
  8
D-STR-DIM（寸法）
  6
Continuous
 62
     7
 48
10.0
100
AcDbLine
 10
176917.2095268023
 20
95586.30193364184
 30
0.0
 11
177217.2095268023
 21
95636.30193364184
 31
0.0
  0
LINE
  5
27AFB
330
1F
100
AcDbEntity
  8
D-STR-DIM（寸法）
  6
Continuous
 62
     7
 48
10.0
100
AcDbLine
 10
176917.2095268023
 20
95586.30193364184
 30
0.0
 11
177217.2095268023
 21
95586.30193364184
 31
0.0
  0
LINE
  5
27AFC
330
1F
100
AcDbEntity
  8
D-STR-DIM（寸法）
  6
Continuous
 62
     7
 48
10.0
100
AcDbLine
 10
176617.2095268023
 20
95636.30193364184
 30
0.0
 11
176917.2095268023
 21
95586.30193364184
 31
0.0
  0
LINE
  5
27AFD
330
1F
100
AcDbEntity
  8
D-STR-DIM（寸法）
  6
Continuous
 62
     7
 48
10.0
100
AcDbLine
 10
176917.2095268023
 20
95586.30193364184
 30
0.0
 11
176617.2095268023
 21
95536.30193364183
 31
0.0
  0
LINE
  5
27AFE
330
1F
100
AcDbEntity
  8
D-STR-DIM（寸法）
  6
Continuous
 62
     7
 48
10.0
100
AcDbLine
 10
176917.2095268023
 20
95586.30193364184
 30
0.0
 11
176617.2095268023
 21
95586.30193364184
 31
0.0
  0
LINE
  5
27AFF
330
1F
100
AcDbEntity
  8
D-STR-DIM（寸法）
  6
Continuous
 62
     7
 48
10.0
100
AcDbLine
 10
179617.2095268023
 20
95636.30193364184
 30
0.0
 11
179917.2095268023
 21
95586.30193364184
 31
0.0
  0
LINE
  5
27B00
330
1F
100
AcDbEntity
  8
D-STR-DIM（寸法）
  6
Continuous
 62
     7
 48
10.0
100
AcDbLine
 10
179917.2095268023
 20
95586.30193364184
 30
0.0
 11
179617.2095268023
 21
95536.30193364183
 31
0.0
  0
LINE
  5
27B01
330
1F
100
AcDbEntity
  8
D-STR-DIM（寸法）
  6
Continuous
 62
     7
 48
10.0
100
AcDbLine
 10
179917.2095268023
 20
95586.30193364184
 30
0.0
 11
179617.2095268023
 21
95586.30193364184
 31
0.0
  0
LINE
  5
27B02
330
1F
100
AcDbEntity
  8
D-STR-DIM（寸法）
  6
Continuous
 62
     7
 48
10.0
100
AcDbLine
 10
180717.2095268024
 20
95536.30193364183
 30
0.0
 11
180417.2095268024
 21
95586.30193364184
 31
0.0
  0
LINE
  5
27B03
330
1F
100
AcDbEntity
  8
D-STR-DIM（寸法）
  6
Continuous
 62
     7
 48
10.0
100
AcDbLine
 10
180417.2095268024
 20
95586.30193364184
 30
0.0
 11
180717.2095268024
 21
95636.30193364184
 31
0.0
  0
LINE
  5
27B04
330
1F
100
AcDbEntity
  8
D-STR-DIM（寸法）
  6
Continuous
 62
     7
 48
10.0
100
AcDbLine
 10
180417.2095268024
 20
95586.30193364184
 30
0.0
 11
180717.2095268024
 21
95586.30193364184
 31
0.0
  0
LINE
  5
27B05
330
1F
100
AcDbEntity
  8
D-STR-DIM（寸法）
  6
Continuous
 62
     7
 48
10.0
100
AcDbLine
 10
179617.2095268023
 20
95636.30193364184
 30
0.0
 11
179917.2095268023
 21
95586.30193364184
 31
0.0
  0
LINE
  5
27B06
330
1F
100
AcDbEntity
  8
D-STR-DIM（寸法）
  6
Continuous
 62
     7
 48
10.0
100
AcDbLine
 10
179917.2095268023
 20
95586.30193364184
 30
0.0
 11
179617.2095268023
 21
95536.30193364183
 31
0.0
  0
LINE
  5
27B07
330
1F
100
AcDbEntity
  8
D-STR-DIM（寸法）
  6
Continuous
 62
     7
 48
10.0
100
AcDbLine
 10
179917.2095268023
 20
95586.30193364184
 30
0.0
 11
179617.2095268023
 21
95586.30193364184
 31
0.0
  0
TEXT
  5
27B08
330
1F
100
AcDbEntity
  8
D-STR-DIM（寸法）
  6
Continuous
 62
     7
100
AcDbText
 10
174949.0623186805
 20
96861.27758364193
 30
0.0
 40
350.0
  1
1000
  7
ＭＳ ゴシック
100
AcDbText
  0
TEXT
  5
27B09
330
1F
100
AcDbEntity
  8
D-STR-DIM（寸法）
  6
Continuous
 62
     7
100
AcDbText
 10
179938.9100344166
 20
95836.30193364184
 30
0.0
 40
350.0
  1
50
  7
ＭＳ ゴシック
100
AcDbText
  0
LINE
  5
27B0A
330
1F
100
AcDbEntity
  8
D-STR-DIM（寸法）
  6
Continuous
 62
     7
 48
10.0
100
AcDbLine
 10
180117.2095268023
 20
96811.27758364192
 30
0.0
 11
180417.2095268024
 21
96761.27758364193
 31
0.0
  0
LINE
  5
27B0B
330
1F
100
AcDbEntity
  8
D-STR-DIM（寸法）
  6
Continuous
 62
     7
 48
10.0
100
AcDbLine
 10
180417.2095268024
 20
96761.27758364193
 30
0.0
 11
180117.2095268023
 21
96711.27758364193
 31
0.0
  0
LINE
  5
27B0C
330
1F
100
AcDbEntity
  8
D-STR-DIM（寸法）
  6
Continuous
 62
     7
 48
10.0
100
AcDbLine
 10
180417.2095268024
 20
96761.27758364193
 30
0.0
 11
180117.2095268023
 21
96761.27758364193
 31
0.0
  0
ENDSEC
  0
SECTION
  2
OBJECTS
  0
DICTIONARY
  5
C
330
0
100
AcDbDictionary
281
     1
  3
ACAD_COLOR
350
2694A
  3
ACAD_GROUP
350
D
  3
ACAD_LAYOUT
350
1A
  3
ACAD_MATERIAL
350
26949
  3
ACAD_MLINESTYLE
350
17
  3
ACAD_PLOTSETTINGS
350
19
  3
ACAD_PLOTSTYLENAME
350
E
  3
ACDBHEADERROUNDTRIPXREC
350
27B1D
  3
AcDbVariableDictionary
350
11766
  0
DICTIONARY
  5
118F2
330
2
100
AcDbDictionary
280
     1
281
     1
  3
ACAD_LAYERFILTERS
360
118F3
  3
ACAD_LAYERSTATES
360
2698D
  0
DICTIONARY
  5
2C
330
1F
100
AcDbDictionary
280
     1
281
     1
  3
ACAD_LAYOUTSELFREF
360
2693A
  0
DICTIONARY
  5
2E
330
1B
100
AcDbDictionary
280
     1
281
     1
  3
ACAD_LAYOUTSELFREF
360
26939
  0
DICTIONARY
  5
30
330
23
100
AcDbDictionary
280
     1
281
     1
  3
ACAD_LAYOUTSELFREF
360
2693B
  0
DICTIONARY
  5
2694A
102
{ACAD_REACTORS
330
C
102
}
330
C
100
AcDbDictionary
281
     1
  0
DICTIONARY
  5
D
102
{ACAD_REACTORS
330
C
102
}
330
C
100
AcDbDictionary
281
     1
  0
DICTIONARY
  5
1A
102
{ACAD_REACTORS
330
C
102
}
330
C
100
AcDbDictionary
281
     1
  3
Model
350
22
  3
ﾚｲｱｳﾄ1
350
1E
  3
ﾚｲｱｳﾄ2
350
26
  0
DICTIONARY
  5
26949
102
{ACAD_REACTORS
330
C
102
}
330
C
100
AcDbDictionary
281
     1
  0
DICTIONARY
  5
17
102
{ACAD_REACTORS
330
C
102
}
330
C
100
AcDbDictionary
281
     1
  3
Standard
350
18
  0
DICTIONARY
  5
19
102
{ACAD_REACTORS
330
C
102
}
330
C
100
AcDbDictionary
281
     1
  0
ACDBDICTIONARYWDFLT
  5
E
102
{ACAD_REACTORS
330
C
102
}
330
C
100
AcDbDictionary
281
     1
  3
Normal
350
F
100
AcDbDictionaryWithDefault
340
F
  0
DICTIONARY
  5
27B1D
102
{ACAD_REACTORS
330
C
102
}
330
C
100
AcDbDictionary
281
     1
  3
COLORDICT
350
27B1F
  3
MATERIALDICT
350
27B1E
  0
DICTIONARY
  5
11766
102
{ACAD_REACTORS
330
C
102
}
330
C
100
AcDbDictionary
281
     1
  3
DIMASSOC
350
2796A
  3
PROJECTNAME
350
2796B
  3
SORTENTS
350
11767
  0
DICTIONARY
  5
118F3
102
{ACAD_REACTORS
330
118F2
102
}
330
118F2
100
AcDbDictionary
280
     1
281
     1
  3
0
360
118F4
  3
0 Layers
360
118F5
  3
01
360
118F6
  3
01-teitai
360
118F7
  3
02-zentai
360
118F8
  3
03-zentai+kussaku
360
118F9
  3
04-chikei
360
118FA
  3
05-chikei-5m
360
118FB
  3
06-kussaku
360
118FC
  3
1
360
118FD
  3
1-交差点処理図（最新1案）
360
118FE
  3
10
360
118FF
  3
100
360
11900
  3
100ban
360
11901
  3
160ban
360
11903
  3
180
360
11904
  3
180-240
360
11905
  3
181
360
11906
  3
1mtoukousenn
360
11907
  3
2
360
11908
  3
2-線形図1
360
11909
  3
21
360
1190A
  3
240ban
360
1190B
  3
252
360
1190C
  3
3
360
1190D
  3
3-線形図2
360
1190E
  3
32
360
1190F
  3
3dC
360
11910
  3
3dC5
360
11911
  3
44
360
11912
  3
50
360
11913
  3
66-躯体図
360
11914
  3
66躯体図
360
11915
  3
7-専用部北行
360
11916
  3
8
360
11917
  3
8-ONﾗﾝﾌﾟ
360
11918
  3
9-OFFﾗﾝﾌﾟ
360
11919
  3
a
360
1191A
  3
aaa
360
1191B
  3
AB棟
360
1191C
  3
AGF
360
1191E
  3
BASE
360
1191F
  3
base 1st floor
360
11920
  3
blue
360
11921
  3
bor
360
11922
  3
B北
360
11923
  3
chikei
360
11925
  3
chikei 5 0
360
11927
  3
chikei-5m
360
11926
  3
chikei2
360
11928
  3
chikei5m
360
11929
  3
chishitsu
360
1192A
  3
chishitu
360
1192B
  3
cmu
360
1192C
  3
C打計画図
360
1192D
  3
D
360
1192E
  3
DD125
360
11930
  3
ddd
360
11931
  3
demo
360
11932
  3
Design
360
11933
  3
Design-A1
360
11934
  3
dls
360
11935
  3
door
360
11936
  3
door2
360
11937
  3
doro
360
11938
  3
douro
360
11939
  3
douro-r
360
1193A
  3
D割付平面
360
1193B
  3
D舗装平面
360
11947
  3
D墓地排水
360
11949
  3
e
360
1194A
  3
e-roof
360
1194B
  3
EL
360
1194C
  3
ext
360
1194F
  3
Exterior
360
11950
  3
E南
360
11951
  3
f
360
11952
  3
ff
360
11953
  3
FP
360
11954
  3
freeze
360
11955
  3
frize
360
11956
  3
frozen
360
11957
  3
gankyu
360
11958
  3
gc
360
11959
  3
gound
360
1195A
  3
green
360
1195B
  3
GRID
360
1195C
  3
H
360
1195D
  3
ha
360
1195E
  3
HALFTONE
360
1195F
  3
HATCH
360
11960
  3
hidden
360
11961
  3
hihyouji
360
11962
  3
HTXT
360
11963
  3
HTXT2
360
11964
  3
hyouji
360
11965
  3
int
360
11966
  3
INTERIOR
360
11967
  3
katen
360
11968
  3
kouzuibaki
360
1196A
  3
kussaku
360
1196B
  3
last
360
1196C
  3
locked
360
1196D
  3
m
360
1196E
  3
mage
360
1196F
  3
MASU
360
11970
  3
metal
360
11971
  3
MEZ
360
11972
  3
Mezzanine
360
11973
  3
moji
360
11974
  3
mtl
360
11976
  3
new
360
11977
  3
new1
360
11978
  3
new2
360
11979
  3
new4
360
1197A
  3
NO_Xref
360
1197B
  3
NON-XREF
360
1197C
  3
norisen
360
1197D
  3
off
360
1197E
  3
OFST
360
1197F
  3
on
360
11980
  3
P
360
11981
  3
PIPE
360
11982
  3
rcp
360
11983
  3
red
360
11984
  3
Reflected ceiling plan
360
11985
  3
Rf
360
11986
  3
ROCK
360
11987
  3
roof
360
11988
  3
RV_NO.0
360
11989
  3
RV_NO.1
360
1198A
  3
RV_NO.2
360
1198B
  3
RV_NO.3
360
1198C
  3
RV_NO.4
360
1198D
  3
RV_NO.5
360
1198E
  3
RV_NO.6
360
1198F
  3
RV_NO.7
360
11990
  3
RV_NO.8
360
11991
  3
Site
360
11992
  3
sokuti
360
11993
  3
Span
360
11994
  3
syuturyokusurumono_11_1
360
11995
  3
TAKASA
360
11996
  3
teitai
360
11997
  3
Text
360
11998
  3
tsuurou
360
11999
  3
UNROCK
360
1199A
  3
Xref Only
360
1199B
  3
yana
360
1199C
  3
yellow
360
1199D
  3
１１
360
11902
  3
ＡＢ棟
360
1191D
  3
ＣＤ棟
360
11924
  3
Ｄ・墓地　施設平面
360
1192F
  3
Ｄ給水設備
360
1193C
  3
Ｄ計画高平面
360
1193D
  3
Ｄ計画平面
360
1193E
  3
Ｄ工事区分
360
1193F
  3
Ｄ高木植栽
360
11940
  3
Ｄ施設平面
360
11941
  3
Ｄ照明設備
360
11942
  3
Ｄ低木
360
11943
  3
Ｄ電気設備
360
11944
  3
Ｄ土壌改良
360
11945
  3
Ｄ排水平面
360
11946
  3
Ｄ墓地施設平面
360
11948
  3
ＥＬ8ｍ
360
1194E
  3
ＥＬ３ｍ
360
1194D
  3
ＫＥ
360
11969
  3
ＭＳ
360
11975
  3
その他
360
1199E
  3
タイトル
360
1199F
  3
パイプルーフ
360
119A0
  3
フリーズ
360
119A1
  3
ランプ
360
119A2
  3
案1
360
119A3
  3
案2
360
119A4
  3
一般
360
119A5
  3
衛生設備図
360
119A6
  3
横断
360
119A7
  3
横断地形
360
119A8
  3
仮設
360
119A9
  3
外部参照－建築
360
119AA
  3
外部参照の非表示画層
360
119AB
  3
丸森横断
360
119AC
  3
岩級
360
119AD
  3
基礎
360
119AE
  3
橋梁案
360
119AF
  3
躯体図
360
119B0
  3
空調設備図
360
119B1
  3
型枠計画図
360
119B2
  3
計画
360
119B3
  3
圏央道縦断図
360
119B4
  3
圏央道排水計画縦断図
360
119B5
  3
建築接地図
360
119B6
  3
現況
360
119B7
  3
構造
360
119B8
  3
構造物
360
119B9
  3
高さ
360
119BA
  3
材料表
360
119BB
  3
作業
360
119BC
  3
山止根切計画図
360
119BD
  3
使用中の画層
360
119BE
  3
縦断
360
119BF
  3
新規作成
360
119C0
  3
芯関係
360
119C1
  3
推進
360
119C2
  3
数量
360
119C3
  3
数量計算
360
119C4
  3
寸法
360
119C5
  3
専北
360
119C6
  3
専用
360
119C7
  3
線形
360
119C8
  3
全消去
360
119C9
  3
全帯
360
119CA
  3
総合仮設図
360
119CB
  3
側面地形
360
119CC
  3
足場計画図
360
119CD
  3
断面
360
119CE
  3
地形以外
360
119CF
  3
地形線等
360
119D0
  3
地盤線
360
119D1
  3
中野
360
119D2
  3
柱状図
360
119D3
  3
鉄骨建方計画図
360
119D4
  3
天井インサート図
360
119D5
  3
天井総合図
360
119D6
  3
天井伏図
360
119D7
  3
添架物
360
119D8
  3
電気設備図
360
119D9
  3
塗り
360
119DA
  3
道路
360
119DB
  3
道路１
360
119DC
  3
道路関係図
360
119DD
  3
読み込み時表示層
360
119DE
  3
非表示
360
119DF
  3
表示
360
119E0
  3
表示2
360
119E1
  3
副道
360
119E2
  3
文字
360
119E3
  3
平面
360
119E4
  3
平面詳細図
360
119E5
  3
平面図
360
119E6
  3
平面総合図
360
119E7
  3
平面地形
360
119E8
  3
補助
360
119E9
  3
報告書
360
119EA
  3
法線
360
119EB
  3
鳳文字入力
360
119EC
  3
用地
360
119ED
  0
DICTIONARY
  5
2698D
102
{ACAD_REACTORS
330
118F2
102
}
330
118F2
100
AcDbDictionary
281
     1
  0
XRECORD
  5
2693A
102
{ACAD_REACTORS
330
2C
102
}
330
2C
100
AcDbXrecord
280
     1
340
1F
  0
XRECORD
  5
26939
102
{ACAD_REACTORS
330
2E
102
}
330
2E
100
AcDbXrecord
280
     1
340
1B
  0
XRECORD
  5
2693B
102
{ACAD_REACTORS
330
30
102
}
330
30
100
AcDbXrecord
280
     1
340
23
  0
LAYOUT
  5
22
102
{ACAD_XDICTIONARY
360
27B22
102
}
102
{ACAD_REACTORS
330
1A
102
}
330
1A
100
AcDbPlotSettings
  1

  2
SkyPDF
  4
A3
  6

 40
3.174999952316283
 41
3.174999952316283
 42
3.17498779296875
 43
3.17498779296875
 44
296.9683227539062
 45
419.9889831542968
 46
0.0
 47
0.55
 48
153765.6618268021
 49
74218.95823364184
140
189685.4199268019
141
99523.17423364192
142
1.0
143
87.07026691639892
 70
 11956
 72
     1
 73
     1
 74
     4
  7
monochrome.ctb
 75
     0
147
0.011484976851629
148
-153765.6618268021
149
-74218.95823364184
100
AcDbLayout
  1
Model
 70
     1
 71
     0
 10
0.0
 20
0.0
 11
12.0
 21
9.0
 12
0.0
 22
0.0
 32
0.0
 14
0.0
 24
0.0
 34
0.0
 15
0.0
 25
0.0
 35
0.0
146
0.0
 13
0.0
 23
0.0
 33
0.0
 16
1.0
 26
0.0
 36
0.0
 17
0.0
 27
1.0
 37
0.0
 76
     0
330
1F
  0
LAYOUT
  5
1E
102
{ACAD_XDICTIONARY
360
27B20
102
}
102
{ACAD_REACTORS
330
1A
102
}
330
1A
100
AcDbPlotSettings
  1

  2
EPSON LP-9200SX
  4

  6

 40
0.0
 41
0.0
 42
0.0
 43
0.0
 44
0.0
 45
0.0
 46
0.0
 47
0.0
 48
0.0
 49
0.0
140
0.0
141
0.0
142
1.0
143
1.0
 70
   688
 72
     0
 73
     0
 74
     5
  7
monochrome.ctb
 75
    16
147
1.0
148
0.0
149
0.0
100
AcDbLayout
  1
ﾚｲｱｳﾄ1
 70
     1
 71
     1
 10
0.0
 20
0.0
 11
420.0
 21
297.0
 12
0.0
 22
0.0
 32
0.0
 14
1.000000000000000E+20
 24
1.000000000000000E+20
 34
1.000000000000000E+20
 15
-1.000000000000000E+20
 25
-1.000000000000000E+20
 35
-1.000000000000000E+20
146
0.0
 13
0.0
 23
0.0
 33
0.0
 16
1.0
 26
0.0
 36
0.0
 17
0.0
 27
1.0
 37
0.0
 76
     0
330
1B
  0
LAYOUT
  5
26
102
{ACAD_XDICTIONARY
360
27B24
102
}
102
{ACAD_REACTORS
330
1A
102
}
330
1A
100
AcDbPlotSettings
  1

  2
EPSON LP-9200SX
  4

  6

 40
0.0
 41
0.0
 42
0.0
 43
0.0
 44
0.0
 45
0.0
 46
0.0
 47
0.0
 48
0.0
 49
0.0
140
0.0
141
0.0
142
1.0
143
1.0
 70
   688
 72
     0
 73
     0
 74
     5
  7
monochrome.ctb
 75
    16
147
1.0
148
0.0
149
0.0
100
AcDbLayout
  1
ﾚｲｱｳﾄ2
 70
     1
 71
     2
 10
0.0
 20
0.0
 11
12.0
 21
9.0
 12
0.0
 22
0.0
 32
0.0
 14
0.0
 24
0.0
 34
0.0
 15
0.0
 25
0.0
 35
0.0
146
0.0
 13
0.0
 23
0.0
 33
0.0
 16
1.0
 26
0.0
 36
0.0
 17
0.0
 27
1.0
 37
0.0
 76
     0
330
23
  0
MLINESTYLE
  5
18
102
{ACAD_REACTORS
330
17
102
}
330
17
100
AcDbMlineStyle
  2
STANDARD
 70
     0
  3

 62
   256
 51
90.0
 52
90.0
 71
     2
 49
0.5
 62
   256
  6
BYLAYER
 49
-0.5
 62
   256
  6
BYLAYER
  0
ACDBPLACEHOLDER
  5
F
102
{ACAD_REACTORS
330
E
102
}
330
E
  0
XRECORD
  5
27B1F
102
{ACAD_REACTORS
330
27B1D
102
}
330
27B1D
100
AcDbXrecord
280
     1
340
2694A
  0
XRECORD
  5
27B1E
102
{ACAD_REACTORS
330
27B1D
102
}
330
27B1D
100
AcDbXrecord
280
     1
340
26949
  0
DICTIONARYVAR
  5
2796A
102
{ACAD_REACTORS
330
11766
102
}
330
11766
100
DictionaryVariables
280
     0
  1
1
  0
DICTIONARYVAR
  5
2796B
102
{ACAD_REACTORS
330
11766
102
}
330
11766
100
DictionaryVariables
280
     0
  1

  0
DICTIONARYVAR
  5
11767
102
{ACAD_REACTORS
330
11766
102
}
330
11766
100
DictionaryVariables
280
     0
  1
96
  0
XRECORD
  5
118F4
102
{ACAD_REACTORS
330
118F3
102
}
330
118F3
100
AcDbXrecord
280
     1
  1
0
  1
*0*
  1
*
  1
*
 70
     0
  1
*
  1
*
  0
XRECORD
  5
118F5
102
{ACAD_REACTORS
330
118F3
102
}
330
118F3
100
AcDbXrecord
280
     1
  1
0 Layers
  1
*0-*
  1
*
  1
*
 70
     0
  1
*
  1
*
  0
XRECORD
  5
118F6
102
{ACAD_REACTORS
330
118F3
102
}
330
118F3
100
AcDbXrecord
280
     1
  1
01
  1
map*
  1
*
  1
*
 70
     0
  1
*
  1
*
  0
XRECORD
  5
118F7
102
{ACAD_REACTORS
330
118F3
102
}
330
118F3
100
AcDbXrecord
280
     1
  1
01-teitai
  1
teitai-block,teitai-douryuu,teitai-genseiko,teitai-umemodoshi
  1
*
  1
*
 70
     0
  1
*
  1
*
  0
XRECORD
  5
118F8
102
{ACAD_REACTORS
330
118F3
102
}
330
118F3
100
AcDbXrecord
280
     1
  1
02-zentai
  1
teitai-block,teitai-douryuu,teitai-genseiko,teitai-umemodoshi,surface-kussaku,???-c,map-l3
  1
*
  1
*
 70
     0
  1
*
  1
*
  0
XRECORD
  5
118F9
102
{ACAD_REACTORS
330
118F3
102
}
330
118F3
100
AcDbXrecord
280
     1
  1
03-zentai+kussaku
  1
teitai-block,teitai-douryuu,teitai-genseiko,teitai-umemodoshi,surface-kussaku
  1
*
  1
*
 70
     0
  1
*
  1
*
  0
XRECORD
  5
118FA
102
{ACAD_REACTORS
330
118F3
102
}
330
118F3
100
AcDbXrecord
280
     1
  1
04-chikei
  1
*-c
  1
*
  1
*
 70
     0
  1
*
  1
*
  0
XRECORD
  5
118FB
102
{ACAD_REACTORS
330
118F3
102
}
330
118F3
100
AcDbXrecord
280
     1
  1
05-chikei-5m
  1
??5-c,??0-c
  1
*
  1
*
 70
     0
  1
*
  1
*
  0
XRECORD
  5
118FC
102
{ACAD_REACTORS
330
118F3
102
}
330
118F3
100
AcDbXrecord
280
     1
  1
06-kussaku
  1
*-k
  1
*
  1
*
 70
     0
  1
*
  1
*
  0
XRECORD
  5
118FD
102
{ACAD_REACTORS
330
118F3
102
}
330
118F3
100
AcDbXrecord
280
     1
  1
1
  1
1*
  1
*
  1
*
 70
     0
  1
*
  1
*
  0
XRECORD
  5
118FE
102
{ACAD_REACTORS
330
118F3
102
}
330
118F3
100
AcDbXrecord
280
     1
  1
1-交差点処理図（最新1案）
  1
*交差点処理図（最新1案）*
  1
*
  1
*
 70
     0
  1
*
  1
*
  0
XRECORD
  5
118FF
102
{ACAD_REACTORS
330
118F3
102
}
330
118F3
100
AcDbXrecord
280
     1
  1
10
  1
10-*
  1
*
  1
*
 70
    12
  1
*
  1
*
  0
XRECORD
  5
11900
102
{ACAD_REACTORS
330
118F3
102
}
330
118F3
100
AcDbXrecord
280
     1
  1
100
  1
*
  1
*
  1
*
 70
     1
  1
*
  1
*
  0
XRECORD
  5
11901
102
{ACAD_REACTORS
330
118F3
102
}
330
118F3
100
AcDbXrecord
280
     1
  1
100ban
  1
*
  1
100
  1
*
 70
     0
  1
*
  1
*
  0
XRECORD
  5
11903
102
{ACAD_REACTORS
330
118F3
102
}
330
118F3
100
AcDbXrecord
280
     1
  1
160ban
  1
*
  1
160
  1
*
 70
     0
  1
*
  1
*
  0
XRECORD
  5
11904
102
{ACAD_REACTORS
330
118F3
102
}
330
118F3
100
AcDbXrecord
280
     1
  1
180
  1
*
  1
180
  1
*
 70
     0
  1
*
  1
*
  0
XRECORD
  5
11905
102
{ACAD_REACTORS
330
118F3
102
}
330
118F3
100
AcDbXrecord
280
     1
  1
180-240
  1
180,240,190,200,210,220,230
  1
*
  1
*
 70
     0
  1
*
  1
*
  0
XRECORD
  5
11906
102
{ACAD_REACTORS
330
118F3
102
}
330
118F3
100
AcDbXrecord
280
     1
  1
181
  1
*
  1
181
  1
*
 70
     0
  1
*
  1
*
  0
XRECORD
  5
11907
102
{ACAD_REACTORS
330
118F3
102
}
330
118F3
100
AcDbXrecord
280
     1
  1
1mtoukousenn
  1
*-c
  1
6
  1
*
 70
     0
  1
*
  1
*
  0
XRECORD
  5
11908
102
{ACAD_REACTORS
330
118F3
102
}
330
118F3
100
AcDbXrecord
280
     1
  1
2
  1
*-c
  1
*
  1
*
 70
     0
  1
*
  1
*
  0
XRECORD
  5
11909
102
{ACAD_REACTORS
330
118F3
102
}
330
118F3
100
AcDbXrecord
280
     1
  1
2-線形図1
  1
*線形図1*
  1
*
  1
*
 70
     0
  1
*
  1
*
  0
XRECORD
  5
1190A
102
{ACAD_REACTORS
330
118F3
102
}
330
118F3
100
AcDbXrecord
280
     1
  1
21
  1
*
  1
21
  1
*
 70
     0
  1
*
  1
*
  0
XRECORD
  5
1190B
102
{ACAD_REACTORS
330
118F3
102
}
330
118F3
100
AcDbXrecord
280
     1
  1
240ban
  1
*
  1
240
  1
*
 70
     0
  1
*
  1
*
  0
XRECORD
  5
1190C
102
{ACAD_REACTORS
330
118F3
102
}
330
118F3
100
AcDbXrecord
280
     1
  1
252
  1
*
  1
252
  1
*
 70
     0
  1
*
  1
*
  0
XRECORD
  5
1190D
102
{ACAD_REACTORS
330
118F3
102
}
330
118F3
100
AcDbXrecord
280
     1
  1
3
  1
*-c
  1
green
  1
*
 70
     0
  1
*
  1
*
  0
XRECORD
  5
1190E
102
{ACAD_REACTORS
330
118F3
102
}
330
118F3
100
AcDbXrecord
280
     1
  1
3-線形図2
  1
*線形図2*
  1
*
  1
*
 70
     0
  1
*
  1
*
  0
XRECORD
  5
1190F
102
{ACAD_REACTORS
330
118F3
102
}
330
118F3
100
AcDbXrecord
280
     1
  1
32
  1
*
  1
32
  1
*
 70
     0
  1
*
  1
*
  0
XRECORD
  5
11910
102
{ACAD_REACTORS
330
118F3
102
}
330
118F3
100
AcDbXrecord
280
     1
  1
3dC
  1
***C
  1
*
  1
*
 70
     0
  1
*
  1
*
  0
XRECORD
  5
11911
102
{ACAD_REACTORS
330
118F3
102
}
330
118F3
100
AcDbXrecord
280
     1
  1
3dC5
  1
**5C
  1
*
  1
*
 70
     0
  1
*
  1
*
  0
XRECORD
  5
11912
102
{ACAD_REACTORS
330
118F3
102
}
330
118F3
100
AcDbXrecord
280
     1
  1
44
  1
*-c
  1
6
  1
*
 70
     0
  1
*
  1
*
  0
XRECORD
  5
11913
102
{ACAD_REACTORS
330
118F3
102
}
330
118F3
100
AcDbXrecord
280
     1
  1
50
  1
*-50
  1
*
  1
*
 70
     0
  1
*
  1
*
  0
XRECORD
  5
11914
102
{ACAD_REACTORS
330
118F3
102
}
330
118F3
100
AcDbXrecord
280
     1
  1
66-躯体図
  1
0,Defpoints,HOJO,雲マーク,000*,010*,020*,1*,400*,470*,520*,570*,08*
  1
*
  1
*
 70
     0
  1
*
  1
*
  0
XRECORD
  5
11915
102
{ACAD_REACTORS
330
118F3
102
}
330
118F3
100
AcDbXrecord
280
     1
  1
66躯体図
  1
0,Defpoints,HOJO,雲マーク,000*,010*,020*,1*,400*,470*,520*,570*,08*,6*
  1
*
  1
*
 70
     0
  1
*
  1
*
  0
XRECORD
  5
11916
102
{ACAD_REACTORS
330
118F3
102
}
330
118F3
100
AcDbXrecord
280
     1
  1
7-専用部北行
  1
80*,90*,A0*,B0*,
  1
*
  1
*
 70
     0
  1
*
  1
*
  0
XRECORD
  5
11917
102
{ACAD_REACTORS
330
118F3
102
}
330
118F3
100
AcDbXrecord
280
     1
  1
8
  1
*
  1
8
  1
*
 70
     0
  1
*
  1
*
  0
XRECORD
  5
11918
102
{ACAD_REACTORS
330
118F3
102
}
330
118F3
100
AcDbXrecord
280
     1
  1
8-ONﾗﾝﾌﾟ
  1
70*,90*,A0*,B0*,
  1
*
  1
*
 70
     0
  1
*
  1
*
  0
XRECORD
  5
11919
102
{ACAD_REACTORS
330
118F3
102
}
330
118F3
100
AcDbXrecord
280
     1
  1
9-OFFﾗﾝﾌﾟ
  1
70*,80*,A0*B0*,
  1
*
  1
*
 70
     0
  1
*
  1
*
  0
XRECORD
  5
1191A
102
{ACAD_REACTORS
330
118F3
102
}
330
118F3
100
AcDbXrecord
280
     1
  1
a
  1
A0*
  1
*
  1
*
 70
     3
  1
*
  1
*
  0
XRECORD
  5
1191B
102
{ACAD_REACTORS
330
118F3
102
}
330
118F3
100
AcDbXrecord
280
     1
  1
aaa
  1
*
  1
*
  1
*
 70
  3072
  1
*
  1
*
  0
XRECORD
  5
1191C
102
{ACAD_REACTORS
330
118F3
102
}
330
118F3
100
AcDbXrecord
280
     1
  1
AB棟
  1
ＡＢ棟*
  1
*
  1
*
 70
     0
  1
*
  1
*
  0
XRECORD
  5
1191E
102
{ACAD_REACTORS
330
118F3
102
}
330
118F3
100
AcDbXrecord
280
     1
  1
AGF
  1
*AGF*
  1
*
  1
*
 70
     0
  1
*
  1
*
  0
XRECORD
  5
1191F
102
{ACAD_REACTORS
330
118F3
102
}
330
118F3
100
AcDbXrecord
280
     1
  1
BASE
  1
*I4BASE
  1
*
  1
*
 70
     0
  1
*
  1
*
  0
XRECORD
  5
11920
102
{ACAD_REACTORS
330
118F3
102
}
330
118F3
100
AcDbXrecord
280
     1
  1
base 1st floor
  1
5210base|ae1*,5210base|aa1*
  1
*
  1
*
 70
     0
  1
*
  1
*
  0
XRECORD
  5
11921
102
{ACAD_REACTORS
330
118F3
102
}
330
118F3
100
AcDbXrecord
280
     1
  1
blue
  1
*
  1
blue
  1
*
 70
     0
  1
*
  1
*
  0
XRECORD
  5
11922
102
{ACAD_REACTORS
330
118F3
102
}
330
118F3
100
AcDbXrecord
280
     1
  1
bor
  1
*bor*
  1
*
  1
*
 70
     0
  1
*
  1
*
  0
XRECORD
  5
11923
102
{ACAD_REACTORS
330
118F3
102
}
330
118F3
100
AcDbXrecord
280
     1
  1
B北
  1
*B北*
  1
*
  1
*
 70
     0
  1
*
  1
*
  0
XRECORD
  5
11925
102
{ACAD_REACTORS
330
118F3
102
}
330
118F3
100
AcDbXrecord
280
     1
  1
chikei
  1
*-c
  1
*
  1
*
 70
     0
  1
*
  1
*
  0
XRECORD
  5
11927
102
{ACAD_REACTORS
330
118F3
102
}
330
118F3
100
AcDbXrecord
280
     1
  1
chikei 5 0
  1
*5-c,*0-c
  1
*
  1
*
 70
     0
  1
*
  1
*
  0
XRECORD
  5
11926
102
{ACAD_REACTORS
330
118F3
102
}
330
118F3
100
AcDbXrecord
280
     1
  1
chikei-5m
  1
??5-c,??0-c
  1
*
  1
*
 70
     0
  1
*
  1
*
  0
XRECORD
  5
11928
102
{ACAD_REACTORS
330
118F3
102
}
330
118F3
100
AcDbXrecord
280
     1
  1
chikei2
  1
*-c
  1
252
  1
*
 70
     0
  1
*
  1
*
  0
XRECORD
  5
11929
102
{ACAD_REACTORS
330
118F3
102
}
330
118F3
100
AcDbXrecord
280
     1
  1
chikei5m
  1
*5-c,*0-c
  1
*
  1
*
 70
     0
  1
*
  1
*
  0
XRECORD
  5
1192A
102
{ACAD_REACTORS
330
118F3
102
}
330
118F3
100
AcDbXrecord
280
     1
  1
chishitsu
  1
*chishitsu*
  1
*
  1
*
 70
     0
  1
*
  1
*
  0
XRECORD
  5
1192B
102
{ACAD_REACTORS
330
118F3
102
}
330
118F3
100
AcDbXrecord
280
     1
  1
chishitu
  1
???-chishitsu,???-chishitsu-1,???-chishitsu-2
  1
*
  1
*
 70
     0
  1
*
  1
*
  0
XRECORD
  5
1192C
102
{ACAD_REACTORS
330
118F3
102
}
330
118F3
100
AcDbXrecord
280
     1
  1
cmu
  1
*cmu*
  1
*
  1
*
 70
     0
  1
*
  1
*
  0
XRECORD
  5
1192D
102
{ACAD_REACTORS
330
118F3
102
}
330
118F3
100
AcDbXrecord
280
     1
  1
C打計画図
  1
001*,002*,003*,004*,005*,007*,012*,015*,016*,017*,018*,019*,020*,021*,049*,050*,051*,052*,053*,054*,055*,056*,057*,058*,059*,060*,061*,062*,063*,064*,065*,066*,067*,068*,069*,070*,071*,072*,073*,074*,075*
  1
*
  1
*
 70
     0
  1
*
  1
*
  0
XRECORD
  5
1192E
102
{ACAD_REACTORS
330
118F3
102
}
330
118F3
100
AcDbXrecord
280
     1
  1
D
  1
D-*
  1
*
  1
*
 70
     0
  1
*
  1
*
  0
XRECORD
  5
11930
102
{ACAD_REACTORS
330
118F3
102
}
330
118F3
100
AcDbXrecord
280
     1
  1
DD125
  1
8326*
  1
*
  1
*
 70
     0
  1
*
  1
*
  0
XRECORD
  5
11931
102
{ACAD_REACTORS
330
118F3
102
}
330
118F3
100
AcDbXrecord
280
     1
  1
ddd
  1
d*-d*-d*-l,dansou
  1
*
  1
*
 70
     0
  1
*
  1
*
  0
XRECORD
  5
11932
102
{ACAD_REACTORS
330
118F3
102
}
330
118F3
100
AcDbXrecord
280
     1
  1
demo
  1
demo*
  1
*
  1
*
 70
     0
  1
*
  1
*
  0
XRECORD
  5
11933
102
{ACAD_REACTORS
330
118F3
102
}
330
118F3
100
AcDbXrecord
280
     1
  1
Design
  1
D-*
  1
*
  1
*
 70
     0
  1
*
  1
*
  0
XRECORD
  5
11934
102
{ACAD_REACTORS
330
118F3
102
}
330
118F3
100
AcDbXrecord
280
     1
  1
Design-A1
  1
*A1*
  1
*
  1
*
 70
     0
  1
*
  1
*
  0
XRECORD
  5
11935
102
{ACAD_REACTORS
330
118F3
102
}
330
118F3
100
AcDbXrecord
280
     1
  1
dls
  1
?-?
  1
*
  1
*
 70
     0
  1
*
  1
*
  0
XRECORD
  5
11936
102
{ACAD_REACTORS
330
118F3
102
}
330
118F3
100
AcDbXrecord
280
     1
  1
door
  1
door
  1
*
  1
*
 70
     0
  1
*
  1
*
  0
XRECORD
  5
11937
102
{ACAD_REACTORS
330
118F3
102
}
330
118F3
100
AcDbXrecord
280
     1
  1
door2
  1
|door
  1
*
  1
*
 70
     0
  1
*
  1
*
  0
XRECORD
  5
11938
102
{ACAD_REACTORS
330
118F3
102
}
330
118F3
100
AcDbXrecord
280
     1
  1
doro
  1
doro***
  1
*
  1
*
 70
     0
  1
*
  1
*
  0
XRECORD
  5
11939
102
{ACAD_REACTORS
330
118F3
102
}
330
118F3
100
AcDbXrecord
280
     1
  1
douro
  1
douro***
  1
*
  1
*
 70
     0
  1
*
  1
*
  0
XRECORD
  5
1193A
102
{ACAD_REACTORS
330
118F3
102
}
330
118F3
100
AcDbXrecord
280
     1
  1
douro-r
  1
road*
  1
*
  1
*
 70
     0
  1
*
  1
*
  0
XRECORD
  5
1193B
102
{ACAD_REACTORS
330
118F3
102
}
330
118F3
100
AcDbXrecord
280
     1
  1
D割付平面
  1
*わ*
  1
*
  1
*
 70
     0
  1
*
  1
*
  0
XRECORD
  5
11947
102
{ACAD_REACTORS
330
118F3
102
}
330
118F3
100
AcDbXrecord
280
     1
  1
D舗装平面
  1
*ほ*
  1
*
  1
*
 70
     0
  1
*
  1
*
  0
XRECORD
  5
11949
102
{ACAD_REACTORS
330
118F3
102
}
330
118F3
100
AcDbXrecord
280
     1
  1
D墓地排水
  1
*は*
  1
*
  1
*
 70
     0
  1
*
  1
*
  0
XRECORD
  5
1194A
102
{ACAD_REACTORS
330
118F3
102
}
330
118F3
100
AcDbXrecord
280
     1
  1
e
  1
e*
  1
*
  1
*
 70
     0
  1
*
  1
*
  0
XRECORD
  5
1194B
102
{ACAD_REACTORS
330
118F3
102
}
330
118F3
100
AcDbXrecord
280
     1
  1
e-roof
  1
e-rf-*
  1
*
  1
*
 70
     0
  1
*
  1
*
  0
XRECORD
  5
1194C
102
{ACAD_REACTORS
330
118F3
102
}
330
118F3
100
AcDbXrecord
280
     1
  1
EL
  1
ＥＬ??8m
  1
*
  1
*
 70
     0
  1
*
  1
*
  0
XRECORD
  5
1194F
102
{ACAD_REACTORS
330
118F3
102
}
330
118F3
100
AcDbXrecord
280
     1
  1
ext
  1
ext*
  1
*
  1
*
 70
     0
  1
*
  1
*
  0
XRECORD
  5
11950
102
{ACAD_REACTORS
330
118F3
102
}
330
118F3
100
AcDbXrecord
280
     1
  1
Exterior
  1
*ext-*
  1
*
  1
*
 70
     0
  1
*
  1
*
  0
XRECORD
  5
11951
102
{ACAD_REACTORS
330
118F3
102
}
330
118F3
100
AcDbXrecord
280
     1
  1
E南
  1
*E*南*
  1
*
  1
*
 70
     0
  1
*
  1
*
  0
XRECORD
  5
11952
102
{ACAD_REACTORS
330
118F3
102
}
330
118F3
100
AcDbXrecord
280
     1
  1
f
  1
*
  1
*
  1
*
 70
    12
  1
*
  1
*
  0
XRECORD
  5
11953
102
{ACAD_REACTORS
330
118F3
102
}
330
118F3
100
AcDbXrecord
280
     1
  1
ff
  1
*
  1
*
  1
*
 70
    12
  1
*
  1
*
  0
XRECORD
  5
11954
102
{ACAD_REACTORS
330
118F3
102
}
330
118F3
100
AcDbXrecord
280
     1
  1
FP
  1
*FP*
  1
*
  1
*
 70
     0
  1
*
  1
*
  0
XRECORD
  5
11955
102
{ACAD_REACTORS
330
118F3
102
}
330
118F3
100
AcDbXrecord
280
     1
  1
freeze
  1
*
  1
*
  1
*
 70
    12
  1
*
  1
*
  0
XRECORD
  5
11956
102
{ACAD_REACTORS
330
118F3
102
}
330
118F3
100
AcDbXrecord
280
     1
  1
frize
  1
*
  1
*
  1
*
 70
     4
  1
*
  1
*
  0
XRECORD
  5
11957
102
{ACAD_REACTORS
330
118F3
102
}
330
118F3
100
AcDbXrecord
280
     1
  1
frozen
  1
*
  1
*
  1
*
 70
     4
  1
*
  1
*
  0
XRECORD
  5
11958
102
{ACAD_REACTORS
330
118F3
102
}
330
118F3
100
AcDbXrecord
280
     1
  1
gankyu
  1
*-d-cl,*-cl-cm,*-cm-ch
  1
*
  1
*
 70
     0
  1
*
  1
*
  0
XRECORD
  5
11959
102
{ACAD_REACTORS
330
118F3
102
}
330
118F3
100
AcDbXrecord
280
     1
  1
gc
  1
chishi*,d-cl*,cl-cm*,cm-ch*,fault*
  1
*
  1
*
 70
     0
  1
*
  1
*
  0
XRECORD
  5
1195A
102
{ACAD_REACTORS
330
118F3
102
}
330
118F3
100
AcDbXrecord
280
     1
  1
gound
  1
g*
  1
*
  1
*
 70
     0
  1
*
  1
*
  0
XRECORD
  5
1195B
102
{ACAD_REACTORS
330
118F3
102
}
330
118F3
100
AcDbXrecord
280
     1
  1
green
  1
*
  1
green
  1
*
 70
     0
  1
*
  1
*
  0
XRECORD
  5
1195C
102
{ACAD_REACTORS
330
118F3
102
}
330
118F3
100
AcDbXrecord
280
     1
  1
GRID
  1
G*
  1
*
  1
*
 70
     0
  1
*
  1
*
  0
XRECORD
  5
1195D
102
{ACAD_REACTORS
330
118F3
102
}
330
118F3
100
AcDbXrecord
280
     1
  1
H
  1
*
  1
*
  1
*
 70
     3
  1
*
  1
*
  0
XRECORD
  5
1195E
102
{ACAD_REACTORS
330
118F3
102
}
330
118F3
100
AcDbXrecord
280
     1
  1
ha
  1
chi*,d-cl*,cl-cm*,cm-ch*,fault*,ha*
  1
*
  1
*
 70
     0
  1
*
  1
*
  0
XRECORD
  5
1195F
102
{ACAD_REACTORS
330
118F3
102
}
330
118F3
100
AcDbXrecord
280
     1
  1
HALFTONE
  1
*
  1
110
  1
*
 70
     0
  1
*
  1
*
  0
XRECORD
  5
11960
102
{ACAD_REACTORS
330
118F3
102
}
330
118F3
100
AcDbXrecord
280
     1
  1
HATCH
  1
*HATCH*
  1
*
  1
*
 70
     0
  1
*
  1
*
  0
XRECORD
  5
11961
102
{ACAD_REACTORS
330
118F3
102
}
330
118F3
100
AcDbXrecord
280
     1
  1
hidden
  1
*
  1
*
  1
hidden
 70
     0
  1
*
  1
*
  0
XRECORD
  5
11962
102
{ACAD_REACTORS
330
118F3
102
}
330
118F3
100
AcDbXrecord
280
     1
  1
hihyouji
  1
*
  1
*
  1
*
 70
     3
  1
*
  1
*
  0
XRECORD
  5
11963
102
{ACAD_REACTORS
330
118F3
102
}
330
118F3
100
AcDbXrecord
280
     1
  1
HTXT
  1
D-*-HTXT
  1
*
  1
*
 70
     0
  1
*
  1
*
  0
XRECORD
  5
11964
102
{ACAD_REACTORS
330
118F3
102
}
330
118F3
100
AcDbXrecord
280
     1
  1
HTXT2
  1
*HTXT2
  1
*
  1
*
 70
     0
  1
*
  1
*
  0
XRECORD
  5
11965
102
{ACAD_REACTORS
330
118F3
102
}
330
118F3
100
AcDbXrecord
280
     1
  1
hyouji
  1
*
  1
*
  1
*
 70
     1
  1
*
  1
*
  0
XRECORD
  5
11966
102
{ACAD_REACTORS
330
118F3
102
}
330
118F3
100
AcDbXrecord
280
     1
  1
int
  1
int*
  1
*
  1
*
 70
     0
  1
*
  1
*
  0
XRECORD
  5
11967
102
{ACAD_REACTORS
330
118F3
102
}
330
118F3
100
AcDbXrecord
280
     1
  1
INTERIOR
  1
*INT*
  1
*
  1
*
 70
     0
  1
*
  1
*
  0
XRECORD
  5
11968
102
{ACAD_REACTORS
330
118F3
102
}
330
118F3
100
AcDbXrecord
280
     1
  1
katen
  1
katen*
  1
*
  1
*
 70
     0
  1
*
  1
*
  0
XRECORD
  5
1196A
102
{ACAD_REACTORS
330
118F3
102
}
330
118F3
100
AcDbXrecord
280
     1
  1
kouzuibaki
  1
kouzui*
  1
*
  1
*
 70
     0
  1
*
  1
*
  0
XRECORD
  5
1196B
102
{ACAD_REACTORS
330
118F3
102
}
330
118F3
100
AcDbXrecord
280
     1
  1
kussaku
  1
*-k
  1
*
  1
*
 70
     0
  1
*
  1
*
  0
XRECORD
  5
1196C
102
{ACAD_REACTORS
330
118F3
102
}
330
118F3
100
AcDbXrecord
280
     1
  1
last
  1
*
  1
*
  1
*
 70
     1
  1
*
  1
*
  0
XRECORD
  5
1196D
102
{ACAD_REACTORS
330
118F3
102
}
330
118F3
100
AcDbXrecord
280
     1
  1
locked
  1
*
  1
*
  1
*
 70
   256
  1
*
  1
*
  0
XRECORD
  5
1196E
102
{ACAD_REACTORS
330
118F3
102
}
330
118F3
100
AcDbXrecord
280
     1
  1
m
  1
***m
  1
*
  1
*
 70
     0
  1
*
  1
*
  0
XRECORD
  5
1196F
102
{ACAD_REACTORS
330
118F3
102
}
330
118F3
100
AcDbXrecord
280
     1
  1
mage
  1
*
  1
magenta
  1
*
 70
     0
  1
*
  1
*
  0
XRECORD
  5
11970
102
{ACAD_REACTORS
330
118F3
102
}
330
118F3
100
AcDbXrecord
280
     1
  1
MASU
  1
*MASU
  1
*
  1
*
 70
     0
  1
*
  1
*
  0
XRECORD
  5
11971
102
{ACAD_REACTORS
330
118F3
102
}
330
118F3
100
AcDbXrecord
280
     1
  1
metal
  1
*mtl*
  1
*
  1
*
 70
     0
  1
*
  1
*
  0
XRECORD
  5
11972
102
{ACAD_REACTORS
330
118F3
102
}
330
118F3
100
AcDbXrecord
280
     1
  1
MEZ
  1
*MEZ*
  1
*
  1
*
 70
     0
  1
*
  1
*
  0
XRECORD
  5
11973
102
{ACAD_REACTORS
330
118F3
102
}
330
118F3
100
AcDbXrecord
280
     1
  1
Mezzanine
  1
*mez-*
  1
*
  1
*
 70
     0
  1
*
  1
*
  0
XRECORD
  5
11974
102
{ACAD_REACTORS
330
118F3
102
}
330
118F3
100
AcDbXrecord
280
     1
  1
moji
  1
*moji
  1
*
  1
*
 70
     0
  1
*
  1
*
  0
XRECORD
  5
11976
102
{ACAD_REACTORS
330
118F3
102
}
330
118F3
100
AcDbXrecord
280
     1
  1
mtl
  1
*mtl*
  1
*
  1
*
 70
     0
  1
*
  1
*
  0
XRECORD
  5
11977
102
{ACAD_REACTORS
330
118F3
102
}
330
118F3
100
AcDbXrecord
280
     1
  1
new
  1
*
  1
*
  1
*
 70
    12
  1
*
  1
*
  0
XRECORD
  5
11978
102
{ACAD_REACTORS
330
118F3
102
}
330
118F3
100
AcDbXrecord
280
     1
  1
new1
  1
*
  1
*
  1
*
 70
     1
  1
*
  1
*
  0
XRECORD
  5
11979
102
{ACAD_REACTORS
330
118F3
102
}
330
118F3
100
AcDbXrecord
280
     1
  1
new2
  1
*
  1
*
  1
*
 70
     1
  1
*
  1
*
  0
XRECORD
  5
1197A
102
{ACAD_REACTORS
330
118F3
102
}
330
118F3
100
AcDbXrecord
280
     1
  1
new4
  1
*
  1
*
  1
*
 70
    12
  1
*
  1
*
  0
XRECORD
  5
1197B
102
{ACAD_REACTORS
330
118F3
102
}
330
118F3
100
AcDbXrecord
280
     1
  1
NO_Xref
  1
*|
  1
*
  1
*
 70
     0
  1
*
  1
*
  0
XRECORD
  5
1197C
102
{ACAD_REACTORS
330
118F3
102
}
330
118F3
100
AcDbXrecord
280
     1
  1
NON-XREF
  1
*
  1
*
  1
*
 70
     0
  1
*
  1
*
  0
XRECORD
  5
1197D
102
{ACAD_REACTORS
330
118F3
102
}
330
118F3
100
AcDbXrecord
280
     1
  1
norisen
  1
*-n
  1
*
  1
*
 70
     0
  1
*
  1
*
  0
XRECORD
  5
1197E
102
{ACAD_REACTORS
330
118F3
102
}
330
118F3
100
AcDbXrecord
280
     1
  1
off
  1
*
  1
*
  1
*
 70
     3
  1
*
  1
*
  0
XRECORD
  5
1197F
102
{ACAD_REACTORS
330
118F3
102
}
330
118F3
100
AcDbXrecord
280
     1
  1
OFST
  1
*OFST
  1
*
  1
*
 70
     0
  1
*
  1
*
  0
XRECORD
  5
11980
102
{ACAD_REACTORS
330
118F3
102
}
330
118F3
100
AcDbXrecord
280
     1
  1
on
  1
*
  1
*
  1
*
 70
     1
  1
*
  1
*
  0
XRECORD
  5
11981
102
{ACAD_REACTORS
330
118F3
102
}
330
118F3
100
AcDbXrecord
280
     1
  1
P
  1
P-*
  1
*
  1
*
 70
     0
  1
*
  1
*
  0
XRECORD
  5
11982
102
{ACAD_REACTORS
330
118F3
102
}
330
118F3
100
AcDbXrecord
280
     1
  1
PIPE
  1
*PIPE*
  1
*
  1
*
 70
     0
  1
*
  1
*
  0
XRECORD
  5
11983
102
{ACAD_REACTORS
330
118F3
102
}
330
118F3
100
AcDbXrecord
280
     1
  1
rcp
  1
*rcp*
  1
*
  1
*
 70
     0
  1
*
  1
*
  0
XRECORD
  5
11984
102
{ACAD_REACTORS
330
118F3
102
}
330
118F3
100
AcDbXrecord
280
     1
  1
red
  1
*
  1
red
  1
*
 70
     0
  1
*
  1
*
  0
XRECORD
  5
11985
102
{ACAD_REACTORS
330
118F3
102
}
330
118F3
100
AcDbXrecord
280
     1
  1
Reflected ceiling plan
  1
*Rcp-*
  1
*
  1
*
 70
     0
  1
*
  1
*
  0
XRECORD
  5
11986
102
{ACAD_REACTORS
330
118F3
102
}
330
118F3
100
AcDbXrecord
280
     1
  1
Rf
  1
*Rf*
  1
*
  1
*
 70
     0
  1
*
  1
*
  0
XRECORD
  5
11987
102
{ACAD_REACTORS
330
118F3
102
}
330
118F3
100
AcDbXrecord
280
     1
  1
ROCK
  1
*
  1
*
  1
*
 70
   256
  1
*
  1
*
  0
XRECORD
  5
11988
102
{ACAD_REACTORS
330
118F3
102
}
330
118F3
100
AcDbXrecord
280
     1
  1
roof
  1
*rf*
  1
*
  1
*
 70
     0
  1
*
  1
*
  0
XRECORD
  5
11989
102
{ACAD_REACTORS
330
118F3
102
}
330
118F3
100
AcDbXrecord
280
     1
  1
RV_NO.0
  1
*00*
  1
*
  1
*
 70
     0
  1
*
  1
*
  0
XRECORD
  5
1198A
102
{ACAD_REACTORS
330
118F3
102
}
330
118F3
100
AcDbXrecord
280
     1
  1
RV_NO.1
  1
*01*
  1
*
  1
*
 70
     0
  1
*
  1
*
  0
XRECORD
  5
1198B
102
{ACAD_REACTORS
330
118F3
102
}
330
118F3
100
AcDbXrecord
280
     1
  1
RV_NO.2
  1
*02*
  1
*
  1
*
 70
     0
  1
*
  1
*
  0
XRECORD
  5
1198C
102
{ACAD_REACTORS
330
118F3
102
}
330
118F3
100
AcDbXrecord
280
     1
  1
RV_NO.3
  1
*03*
  1
*
  1
*
 70
     0
  1
*
  1
*
  0
XRECORD
  5
1198D
102
{ACAD_REACTORS
330
118F3
102
}
330
118F3
100
AcDbXrecord
280
     1
  1
RV_NO.4
  1
*04*
  1
*
  1
*
 70
     0
  1
*
  1
*
  0
XRECORD
  5
1198E
102
{ACAD_REACTORS
330
118F3
102
}
330
118F3
100
AcDbXrecord
280
     1
  1
RV_NO.5
  1
*05*
  1
*
  1
*
 70
     0
  1
*
  1
*
  0
XRECORD
  5
1198F
102
{ACAD_REACTORS
330
118F3
102
}
330
118F3
100
AcDbXrecord
280
     1
  1
RV_NO.6
  1
*06*
  1
*
  1
*
 70
     0
  1
*
  1
*
  0
XRECORD
  5
11990
102
{ACAD_REACTORS
330
118F3
102
}
330
118F3
100
AcDbXrecord
280
     1
  1
RV_NO.7
  1
*07*
  1
*
  1
*
 70
     0
  1
*
  1
*
  0
XRECORD
  5
11991
102
{ACAD_REACTORS
330
118F3
102
}
330
118F3
100
AcDbXrecord
280
     1
  1
RV_NO.8
  1
*08*
  1
*
  1
*
 70
     0
  1
*
  1
*
  0
XRECORD
  5
11992
102
{ACAD_REACTORS
330
118F3
102
}
330
118F3
100
AcDbXrecord
280
     1
  1
Site
  1
*S-*
  1
*
  1
*
 70
     0
  1
*
  1
*
  0
XRECORD
  5
11993
102
{ACAD_REACTORS
330
118F3
102
}
330
118F3
100
AcDbXrecord
280
     1
  1
sokuti
  1
s*
  1
*
  1
*
 70
     0
  1
*
  1
*
  0
XRECORD
  5
11994
102
{ACAD_REACTORS
330
118F3
102
}
330
118F3
100
AcDbXrecord
280
     1
  1
Span
  1
S-*
  1
*
  1
*
 70
     0
  1
*
  1
*
  0
XRECORD
  5
11995
102
{ACAD_REACTORS
330
118F3
102
}
330
118F3
100
AcDbXrecord
280
     1
  1
syuturyokusurumono_11_1
  1
*
  1
*
  1
*
 70
    13
  1
*
  1
*
  0
XRECORD
  5
11996
102
{ACAD_REACTORS
330
118F3
102
}
330
118F3
100
AcDbXrecord
280
     1
  1
TAKASA
  1
*
  1
2
  1
*
 70
     0
  1
*
  1
*
  0
XRECORD
  5
11997
102
{ACAD_REACTORS
330
118F3
102
}
330
118F3
100
AcDbXrecord
280
     1
  1
teitai
  1
*-l,teisi
  1
*
  1
*
 70
     0
  1
*
  1
*
  0
XRECORD
  5
11998
102
{ACAD_REACTORS
330
118F3
102
}
330
118F3
100
AcDbXrecord
280
     1
  1
Text
  1
T-*
  1
*
  1
*
 70
     0
  1
*
  1
*
  0
XRECORD
  5
11999
102
{ACAD_REACTORS
330
118F3
102
}
330
118F3
100
AcDbXrecord
280
     1
  1
tsuurou
  1
tsu*
  1
*
  1
*
 70
     0
  1
*
  1
*
  0
XRECORD
  5
1199A
102
{ACAD_REACTORS
330
118F3
102
}
330
118F3
100
AcDbXrecord
280
     1
  1
UNROCK
  1
*
  1
*
  1
*
 70
   768
  1
*
  1
*
  0
XRECORD
  5
1199B
102
{ACAD_REACTORS
330
118F3
102
}
330
118F3
100
AcDbXrecord
280
     1
  1
Xref Only
  1
*|*
  1
*
  1
*
 70
     0
  1
*
  1
*
  0
XRECORD
  5
1199C
102
{ACAD_REACTORS
330
118F3
102
}
330
118F3
100
AcDbXrecord
280
     1
  1
yana
  1
*-kkn-ho*,*-t,000-kkn,ore*
  1
*
  1
*
 70
     0
  1
*
  1
*
  0
XRECORD
  5
1199D
102
{ACAD_REACTORS
330
118F3
102
}
330
118F3
100
AcDbXrecord
280
     1
  1
yellow
  1
*
  1
yellow
  1
*
 70
     0
  1
*
  1
*
  0
XRECORD
  5
11902
102
{ACAD_REACTORS
330
118F3
102
}
330
118F3
100
AcDbXrecord
280
     1
  1
１１
  1
11-*
  1
*
  1
*
 70
    12
  1
*
  1
*
  0
XRECORD
  5
1191D
102
{ACAD_REACTORS
330
118F3
102
}
330
118F3
100
AcDbXrecord
280
     1
  1
ＡＢ棟
  1
ＡＢ棟*
  1
*
  1
*
 70
     0
  1
*
  1
*
  0
XRECORD
  5
11924
102
{ACAD_REACTORS
330
118F3
102
}
330
118F3
100
AcDbXrecord
280
     1
  1
ＣＤ棟
  1
T15-*
  1
*
  1
*
 70
     0
  1
*
  1
*
  0
XRECORD
  5
1192F
102
{ACAD_REACTORS
330
118F3
102
}
330
118F3
100
AcDbXrecord
280
     1
  1
Ｄ・墓地　施設平面
  1
*も*
  1
*
  1
*
 70
     0
  1
*
  1
*
  0
XRECORD
  5
1193C
102
{ACAD_REACTORS
330
118F3
102
}
330
118F3
100
AcDbXrecord
280
     1
  1
Ｄ給水設備
  1
*ゆ*
  1
*
  1
*
 70
     0
  1
*
  1
*
  0
XRECORD
  5
1193D
102
{ACAD_REACTORS
330
118F3
102
}
330
118F3
100
AcDbXrecord
280
     1
  1
Ｄ計画高平面
  1
*さ*
  1
*
  1
*
 70
     0
  1
*
  1
*
  0
XRECORD
  5
1193E
102
{ACAD_REACTORS
330
118F3
102
}
330
118F3
100
AcDbXrecord
280
     1
  1
Ｄ計画平面
  1
*け*
  1
*
  1
*
 70
     0
  1
*
  1
*
  0
XRECORD
  5
1193F
102
{ACAD_REACTORS
330
118F3
102
}
330
118F3
100
AcDbXrecord
280
     1
  1
Ｄ工事区分
  1
*ぶ*
  1
*
  1
*
 70
     0
  1
*
  1
*
  0
XRECORD
  5
11940
102
{ACAD_REACTORS
330
118F3
102
}
330
118F3
100
AcDbXrecord
280
     1
  1
Ｄ高木植栽
  1
*こ*
  1
*
  1
*
 70
     0
  1
*
  1
*
  0
XRECORD
  5
11941
102
{ACAD_REACTORS
330
118F3
102
}
330
118F3
100
AcDbXrecord
280
     1
  1
Ｄ施設平面
  1
*し*
  1
*
  1
*
 70
     0
  1
*
  1
*
  0
XRECORD
  5
11942
102
{ACAD_REACTORS
330
118F3
102
}
330
118F3
100
AcDbXrecord
280
     1
  1
Ｄ照明設備
  1
*め*
  1
*
  1
*
 70
     0
  1
*
  1
*
  0
XRECORD
  5
11943
102
{ACAD_REACTORS
330
118F3
102
}
330
118F3
100
AcDbXrecord
280
     1
  1
Ｄ低木
  1
*て*
  1
*
  1
*
 70
     0
  1
*
  1
*
  0
XRECORD
  5
11944
102
{ACAD_REACTORS
330
118F3
102
}
330
118F3
100
AcDbXrecord
280
     1
  1
Ｄ電気設備
  1
*で*
  1
*
  1
*
 70
     0
  1
*
  1
*
  0
XRECORD
  5
11945
102
{ACAD_REACTORS
330
118F3
102
}
330
118F3
100
AcDbXrecord
280
     1
  1
Ｄ土壌改良
  1
*ど*
  1
*
  1
*
 70
     0
  1
*
  1
*
  0
XRECORD
  5
11946
102
{ACAD_REACTORS
330
118F3
102
}
330
118F3
100
AcDbXrecord
280
     1
  1
Ｄ排水平面
  1
*は*
  1
*
  1
*
 70
     0
  1
*
  1
*
  0
XRECORD
  5
11948
102
{ACAD_REACTORS
330
118F3
102
}
330
118F3
100
AcDbXrecord
280
     1
  1
Ｄ墓地施設平面
  1
*も*
  1
*
  1
*
 70
     0
  1
*
  1
*
  0
XRECORD
  5
1194E
102
{ACAD_REACTORS
330
118F3
102
}
330
118F3
100
AcDbXrecord
280
     1
  1
ＥＬ8ｍ
  1
ＥＬ*8m
  1
*
  1
*
 70
     0
  1
*
  1
*
  0
XRECORD
  5
1194D
102
{ACAD_REACTORS
330
118F3
102
}
330
118F3
100
AcDbXrecord
280
     1
  1
ＥＬ３ｍ
  1
ＥＬ*3m
  1
*
  1
*
 70
     0
  1
*
  1
*
  0
XRECORD
  5
11969
102
{ACAD_REACTORS
330
118F3
102
}
330
118F3
100
AcDbXrecord
280
     1
  1
ＫＥ
  1
13-*
  1
*
  1
*
 70
     0
  1
*
  1
*
  0
XRECORD
  5
11975
102
{ACAD_REACTORS
330
118F3
102
}
330
118F3
100
AcDbXrecord
280
     1
  1
ＭＳ
  1
12*
  1
*
  1
*
 70
     0
  1
*
  1
*
  0
XRECORD
  5
1199E
102
{ACAD_REACTORS
330
118F3
102
}
330
118F3
100
AcDbXrecord
280
     1
  1
その他
  1
そ他*
  1
*
  1
*
 70
     0
  1
*
  1
*
  0
XRECORD
  5
1199F
102
{ACAD_REACTORS
330
118F3
102
}
330
118F3
100
AcDbXrecord
280
     1
  1
タイトル
  1
T*
  1
*
  1
*
 70
     0
  1
*
  1
*
  0
XRECORD
  5
119A0
102
{ACAD_REACTORS
330
118F3
102
}
330
118F3
100
AcDbXrecord
280
     1
  1
パイプルーフ
  1
*パイプ*
  1
*
  1
*
 70
     0
  1
*
  1
*
  0
XRECORD
  5
119A1
102
{ACAD_REACTORS
330
118F3
102
}
330
118F3
100
AcDbXrecord
280
     1
  1
フリーズ
  1
*z
  1
*
  1
*
 70
     0
  1
*
  1
*
  0
XRECORD
  5
119A2
102
{ACAD_REACTORS
330
118F3
102
}
330
118F3
100
AcDbXrecord
280
     1
  1
ランプ
  1
*ランプ*
  1
*
  1
*
 70
     0
  1
*
  1
*
  0
XRECORD
  5
119A3
102
{ACAD_REACTORS
330
118F3
102
}
330
118F3
100
AcDbXrecord
280
     1
  1
案1
  1
*案1
  1
*
  1
*
 70
     0
  1
*
  1
*
  0
XRECORD
  5
119A4
102
{ACAD_REACTORS
330
118F3
102
}
330
118F3
100
AcDbXrecord
280
     1
  1
案2
  1
*案2
  1
*
  1
*
 70
     0
  1
*
  1
*
  0
XRECORD
  5
119A5
102
{ACAD_REACTORS
330
118F3
102
}
330
118F3
100
AcDbXrecord
280
     1
  1
一般
  1
*般*
  1
*
  1
*
 70
     0
  1
*
  1
*
  0
XRECORD
  5
119A6
102
{ACAD_REACTORS
330
118F3
102
}
330
118F3
100
AcDbXrecord
280
     1
  1
衛生設備図
  1
001*,002*,004*,005*,007*,010*,039*,040*,041*,042*,043*
  1
*
  1
*
 70
     0
  1
*
  1
*
  0
XRECORD
  5
119A7
102
{ACAD_REACTORS
330
118F3
102
}
330
118F3
100
AcDbXrecord
280
     1
  1
横断
  1
横断*
  1
*
  1
*
 70
     0
  1
*
  1
*
  0
XRECORD
  5
119A8
102
{ACAD_REACTORS
330
118F3
102
}
330
118F3
100
AcDbXrecord
280
     1
  1
横断地形
  1
横断地形
  1
*
  1
*
 70
     0
  1
*
  1
*
  0
XRECORD
  5
119A9
102
{ACAD_REACTORS
330
118F3
102
}
330
118F3
100
AcDbXrecord
280
     1
  1
仮設
  1
*仮*,現況平面
  1
*
  1
*
 70
     0
  1
*
  1
*
  0
XRECORD
  5
119AA
102
{ACAD_REACTORS
330
118F3
102
}
330
118F3
100
AcDbXrecord
280
     1
  1
外部参照－建築
  1
A*
  1
9
  1
*
 70
     0
  1
*
  1
*
  0
XRECORD
  5
119AB
102
{ACAD_REACTORS
330
118F3
102
}
330
118F3
100
AcDbXrecord
280
     1
  1
外部参照の非表示画層
  1
*
  1
*
  1
*
 70
     0
  1
*
  1
*
  0
XRECORD
  5
119AC
102
{ACAD_REACTORS
330
118F3
102
}
330
118F3
100
AcDbXrecord
280
     1
  1
丸森横断
  1
*
  1
*
  1
*
 70
     0
  1
*
  1
*
  0
XRECORD
  5
119AD
102
{ACAD_REACTORS
330
118F3
102
}
330
118F3
100
AcDbXrecord
280
     1
  1
岩級
  1
*岩級
  1
*
  1
*
 70
     0
  1
*
  1
*
  0
XRECORD
  5
119AE
102
{ACAD_REACTORS
330
118F3
102
}
330
118F3
100
AcDbXrecord
280
     1
  1
基礎
  1
基礎*
  1
*
  1
*
 70
     0
  1
*
  1
*
  0
XRECORD
  5
119AF
102
{ACAD_REACTORS
330
118F3
102
}
330
118F3
100
AcDbXrecord
280
     1
  1
橋梁案
  1
*橋梁案*
  1
*
  1
*
 70
     0
  1
*
  1
*
  0
XRECORD
  5
119B0
102
{ACAD_REACTORS
330
118F3
102
}
330
118F3
100
AcDbXrecord
280
     1
  1
躯体図
  1
001*,002*,003*,004*,005*,006*,007*,008*,009*,010*,011*,012*,027*
  1
*
  1
*
 70
     0
  1
*
  1
*
  0
XRECORD
  5
119B1
102
{ACAD_REACTORS
330
118F3
102
}
330
118F3
100
AcDbXrecord
280
     1
  1
空調設備図
  1
001*,002*,004*,005*,007*,010*,033*,034*,035*,036*,037*,038*
  1
*
  1
*
 70
     0
  1
*
  1
*
  0
XRECORD
  5
119B2
102
{ACAD_REACTORS
330
118F3
102
}
330
118F3
100
AcDbXrecord
280
     1
  1
型枠計画図
  1
001*,002*,003*,004*,005*,006*,007*,010*,012*,050*,051*,055*,056*,057*,058*,059*,060*,061*,062*,063*,064*,065*,066*,067*,068*,069*,070*,071*,072*,073*,074*,075*
  1
*
  1
*
 70
     0
  1
*
  1
*
  0
XRECORD
  5
119B3
102
{ACAD_REACTORS
330
118F3
102
}
330
118F3
100
AcDbXrecord
280
     1
  1
計画
  1
S*
  1
*
  1
*
 70
     0
  1
*
  1
*
  0
XRECORD
  5
119B4
102
{ACAD_REACTORS
330
118F3
102
}
330
118F3
100
AcDbXrecord
280
     1
  1
圏央道縦断図
  1
*
  1
*
  1
*
 70
     0
  1
*
  1
*
  0
XRECORD
  5
119B5
102
{ACAD_REACTORS
330
118F3
102
}
330
118F3
100
AcDbXrecord
280
     1
  1
圏央道排水計画縦断図
  1
*
  1
*
  1
*
 70
     0
  1
*
  1
*
  0
XRECORD
  5
119B6
102
{ACAD_REACTORS
330
118F3
102
}
330
118F3
100
AcDbXrecord
280
     1
  1
建築接地図
  1
A01*
  1
*
  1
*
 70
     0
  1
*
  1
*
  0
XRECORD
  5
119B7
102
{ACAD_REACTORS
330
118F3
102
}
330
118F3
100
AcDbXrecord
280
     1
  1
現況
  1
g*
  1
*
  1
*
 70
     0
  1
*
  1
*
  0
XRECORD
  5
119B8
102
{ACAD_REACTORS
330
118F3
102
}
330
118F3
100
AcDbXrecord
280
     1
  1
構造
  1
構造*
  1
*
  1
*
 70
     0
  1
*
  1
*
  0
XRECORD
  5
119B9
102
{ACAD_REACTORS
330
118F3
102
}
330
118F3
100
AcDbXrecord
280
     1
  1
構造物
  1
S*
  1
*
  1
*
 70
     0
  1
*
  1
*
  0
XRECORD
  5
119BA
102
{ACAD_REACTORS
330
118F3
102
}
330
118F3
100
AcDbXrecord
280
     1
  1
高さ
  1
204-TEXT,東西道路*
  1
*
  1
*
 70
     0
  1
*
  1
*
  0
XRECORD
  5
119BB
102
{ACAD_REACTORS
330
118F3
102
}
330
118F3
100
AcDbXrecord
280
     1
  1
材料表
  1
M*
  1
*
  1
*
 70
     0
  1
*
  1
*
  0
XRECORD
  5
119BC
102
{ACAD_REACTORS
330
118F3
102
}
330
118F3
100
AcDbXrecord
280
     1
  1
作業
  1
100-*,地区*,
  1
*
  1
*
 70
     1
  1
*
  1
*
  0
XRECORD
  5
119BD
102
{ACAD_REACTORS
330
118F3
102
}
330
118F3
100
AcDbXrecord
280
     1
  1
山止根切計画図
  1
001*,002*,003*,004*,005*,007*,012*,049*,050*,051*,052*,053*,054*,055*,056*,057*,058*,059*,060*,061*,062*,064*,065*,066*,067*,068*,069*,070*,071*,072*,073*,074*,075*
  1
*
  1
*
 70
     0
  1
*
  1
*
  0
XRECORD
  5
119BE
102
{ACAD_REACTORS
330
118F3
102
}
330
118F3
100
AcDbXrecord
280
     1
  1
使用中の画層
  1
*
  1
*
  1
*
 70
    12
  1
*
  1
*
  0
XRECORD
  5
119BF
102
{ACAD_REACTORS
330
118F3
102
}
330
118F3
100
AcDbXrecord
280
     1
  1
縦断
  1
j_*
  1
*
  1
*
 70
     0
  1
*
  1
*
  0
XRECORD
  5
119C0
102
{ACAD_REACTORS
330
118F3
102
}
330
118F3
100
AcDbXrecord
280
     1
  1
新規作成
  1
n_*
  1
*
  1
*
 70
     0
  1
*
  1
*
  0
XRECORD
  5
119C1
102
{ACAD_REACTORS
330
118F3
102
}
330
118F3
100
AcDbXrecord
280
     1
  1
芯関係
  1
001*,002*,032*
  1
*
  1
*
 70
     0
  1
*
  1
*
  0
XRECORD
  5
119C2
102
{ACAD_REACTORS
330
118F3
102
}
330
118F3
100
AcDbXrecord
280
     1
  1
推進
  1
推進*
  1
*
  1
*
 70
     0
  1
*
  1
*
  0
XRECORD
  5
119C3
102
{ACAD_REACTORS
330
118F3
102
}
330
118F3
100
AcDbXrecord
280
     1
  1
数量
  1
S*
  1
*
  1
*
 70
     0
  1
*
  1
*
  0
XRECORD
  5
119C4
102
{ACAD_REACTORS
330
118F3
102
}
330
118F3
100
AcDbXrecord
280
     1
  1
数量計算
  1
s*
  1
*
  1
*
 70
     0
  1
*
  1
*
  0
XRECORD
  5
119C5
102
{ACAD_REACTORS
330
118F3
102
}
330
118F3
100
AcDbXrecord
280
     1
  1
寸法
  1
dim*
  1
*
  1
*
 70
     0
  1
*
  1
*
  0
XRECORD
  5
119C6
102
{ACAD_REACTORS
330
118F3
102
}
330
118F3
100
AcDbXrecord
280
     1
  1
専北
  1
*専北*
  1
*
  1
*
 70
     0
  1
*
  1
*
  0
XRECORD
  5
119C7
102
{ACAD_REACTORS
330
118F3
102
}
330
118F3
100
AcDbXrecord
280
     1
  1
専用
  1
*専*
  1
*
  1
*
 70
     0
  1
*
  1
*
  0
XRECORD
  5
119C8
102
{ACAD_REACTORS
330
118F3
102
}
330
118F3
100
AcDbXrecord
280
     1
  1
線形
  1
*線形*
  1
*
  1
*
 70
     0
  1
*
  1
*
  0
XRECORD
  5
119C9
102
{ACAD_REACTORS
330
118F3
102
}
330
118F3
100
AcDbXrecord
280
     1
  1
全消去
  1
*
  1
*
  1
*
 70
     3
  1
*
  1
*
  0
XRECORD
  5
119CA
102
{ACAD_REACTORS
330
118F3
102
}
330
118F3
100
AcDbXrecord
280
     1
  1
全帯
  1
*帯*
  1
*
  1
*
 70
     0
  1
*
  1
*
  0
XRECORD
  5
119CB
102
{ACAD_REACTORS
330
118F3
102
}
330
118F3
100
AcDbXrecord
280
     1
  1
総合仮設図
  1
001*,002*,003*,004*,005*,007*,012*,015*,016*,017*,018*,019*,020*,021*,049*,050*,051*,052*,053*,054*,055*,056*,057*,058*,059*,060*,061*,062*,063*,064*,065*,066*,067*,068*,069*,070*,071*,072*,073*,074*,075*
  1
*
  1
*
 70
     0
  1
*
  1
*
  0
XRECORD
  5
119CC
102
{ACAD_REACTORS
330
118F3
102
}
330
118F3
100
AcDbXrecord
280
     1
  1
側面地形
  1
側面地形*
  1
*
  1
*
 70
     0
  1
*
  1
*
  0
XRECORD
  5
119CD
102
{ACAD_REACTORS
330
118F3
102
}
330
118F3
100
AcDbXrecord
280
     1
  1
足場計画図
  1
001*,002*,003*,004*,005*,007*,012*,015*,049*,050*,051*,055*,056*,057*,058*,059*,060*,061*,062*,064*,065*,066*,067*,068*,069*,070*,071*,072*,073*,074*,075*
  1
*
  1
*
 70
     0
  1
*
  1
*
  0
XRECORD
  5
119CE
102
{ACAD_REACTORS
330
118F3
102
}
330
118F3
100
AcDbXrecord
280
     1
  1
断面
  1
*断面*
  1
*
  1
*
 70
     0
  1
*
  1
*
  0
XRECORD
  5
119CF
102
{ACAD_REACTORS
330
118F3
102
}
330
118F3
100
AcDbXrecord
280
     1
  1
地形以外
  1
n_*
  1
*
  1
*
 70
     0
  1
*
  1
*
  0
XRECORD
  5
119D0
102
{ACAD_REACTORS
330
118F3
102
}
330
118F3
100
AcDbXrecord
280
     1
  1
地形線等
  1
*-c,l3,l1,p0
  1
*
  1
*
 70
     0
  1
*
  1
*
  0
XRECORD
  5
119D1
102
{ACAD_REACTORS
330
118F3
102
}
330
118F3
100
AcDbXrecord
280
     1
  1
地盤線
  1
B*
  1
*
  1
*
 70
     0
  1
*
  1
*
  0
XRECORD
  5
119D2
102
{ACAD_REACTORS
330
118F3
102
}
330
118F3
100
AcDbXrecord
280
     1
  1
中野
  1
中野*
  1
*
  1
*
 70
     0
  1
*
  1
*
  0
XRECORD
  5
119D3
102
{ACAD_REACTORS
330
118F3
102
}
330
118F3
100
AcDbXrecord
280
     1
  1
柱状図
  1
柱状図*
  1
*
  1
*
 70
     0
  1
*
  1
*
  0
XRECORD
  5
119D4
102
{ACAD_REACTORS
330
118F3
102
}
330
118F3
100
AcDbXrecord
280
     1
  1
鉄骨建方計画図
  1
001*,002*,003*,004*,005*,007*,012*,013*,049*,050*,051*,052*,053*,054*,055*,056*,057*,058*,059*,060*,061*,062*,063*,064*,065*,066*,067*,068*,069*,070*,071*,072*,073*,074*,075*
  1
*
  1
*
 70
     0
  1
*
  1
*
  0
XRECORD
  5
119D5
102
{ACAD_REACTORS
330
118F3
102
}
330
118F3
100
AcDbXrecord
280
     1
  1
天井インサート図
  1
001*,002*,004*,010*,022*,023*,024*,025*,026*,027*,028*,029*,037*,042*
  1
*
  1
*
 70
     0
  1
*
  1
*
  0
XRECORD
  5
119D6
102
{ACAD_REACTORS
330
118F3
102
}
330
118F3
100
AcDbXrecord
280
     1
  1
天井総合図
  1
001*,002*,004*,005*,007*,010*,022*,023*,024*,025*,026*,027*,028*,029*,030*,031*,033*,035*,036*,037*,039*,041*,042*,044*,046*,047*
  1
*
  1
*
 70
     0
  1
*
  1
*
  0
XRECORD
  5
119D7
102
{ACAD_REACTORS
330
118F3
102
}
330
118F3
100
AcDbXrecord
280
     1
  1
天井伏図
  1
001*,002*,004*,010*,022*,023*,024*,025*,026*,027*,028*,029*,033*,039*,044*
  1
*
  1
*
 70
     0
  1
*
  1
*
  0
XRECORD
  5
119D8
102
{ACAD_REACTORS
330
118F3
102
}
330
118F3
100
AcDbXrecord
280
     1
  1
添架物
  1
*添架*
  1
*
  1
*
 70
     0
  1
*
  1
*
  0
XRECORD
  5
119D9
102
{ACAD_REACTORS
330
118F3
102
}
330
118F3
100
AcDbXrecord
280
     1
  1
電気設備図
  1
001*,002*,004*,005*,007*,010*,030*,031*,044*,045*,046*,047*,048*
  1
*
  1
*
 70
     0
  1
*
  1
*
  0
XRECORD
  5
119DA
102
{ACAD_REACTORS
330
118F3
102
}
330
118F3
100
AcDbXrecord
280
     1
  1
塗り
  1
*塗り*
  1
*
  1
*
 70
     0
  1
*
  1
*
  0
XRECORD
  5
119DB
102
{ACAD_REACTORS
330
118F3
102
}
330
118F3
100
AcDbXrecord
280
     1
  1
道路
  1
*
  1
*
  1
*
 70
    12
  1
*
  1
*
  0
XRECORD
  5
119DC
102
{ACAD_REACTORS
330
118F3
102
}
330
118F3
100
AcDbXrecord
280
     1
  1
道路１
  1
*
  1
*
  1
*
 70
    12
  1
*
  1
*
  0
XRECORD
  5
119DD
102
{ACAD_REACTORS
330
118F3
102
}
330
118F3
100
AcDbXrecord
280
     1
  1
道路関係図
  1
001*,002*,003*,004*,007*,012*,015*,016*,017*,018*,019*,020*,021*,049*,050*,051*,052*,053*,054*,055*,056*,057*,058*,059*,060*,061*,062*,063*,064*,065*,066*,067*,068*,069*,070*,071*,072*,073*,074*,075*
  1
*
  1
*
 70
     0
  1
*
  1
*
  0
XRECORD
  5
119DE
102
{ACAD_REACTORS
330
118F3
102
}
330
118F3
100
AcDbXrecord
280
     1
  1
読み込み時表示層
  1
*
  1
*
  1
*
 70
     0
  1
*
  1
*
  0
XRECORD
  5
119DF
102
{ACAD_REACTORS
330
118F3
102
}
330
118F3
100
AcDbXrecord
280
     1
  1
非表示
  1
z*
  1
*
  1
*
 70
     0
  1
*
  1
*
  0
XRECORD
  5
119E0
102
{ACAD_REACTORS
330
118F3
102
}
330
118F3
100
AcDbXrecord
280
     1
  1
表示
  1
*
  1
*
  1
*
 70
     1
  1
*
  1
*
  0
XRECORD
  5
119E1
102
{ACAD_REACTORS
330
118F3
102
}
330
118F3
100
AcDbXrecord
280
     1
  1
表示2
  1
*
  1
*
  1
*
 70
   257
  1
*
  1
*
  0
XRECORD
  5
119E2
102
{ACAD_REACTORS
330
118F3
102
}
330
118F3
100
AcDbXrecord
280
     1
  1
副道
  1
*副*
  1
*
  1
*
 70
     0
  1
*
  1
*
  0
XRECORD
  5
119E3
102
{ACAD_REACTORS
330
118F3
102
}
330
118F3
100
AcDbXrecord
280
     1
  1
文字
  1
*字
  1
*
  1
*
 70
     0
  1
*
  1
*
  0
XRECORD
  5
119E4
102
{ACAD_REACTORS
330
118F3
102
}
330
118F3
100
AcDbXrecord
280
     1
  1
平面
  1
n_*
  1
*
  1
*
 70
     0
  1
*
  1
*
  0
XRECORD
  5
119E5
102
{ACAD_REACTORS
330
118F3
102
}
330
118F3
100
AcDbXrecord
280
     1
  1
平面詳細図
  1
001*,002*,004*,007*,010*,013*,014*,015*,016*,017*,018*,019*,020*,021*,030*,034*,040*,045*
  1
*
  1
*
 70
     0
  1
*
  1
*
  0
XRECORD
  5
119E6
102
{ACAD_REACTORS
330
118F3
102
}
330
118F3
100
AcDbXrecord
280
     1
  1
平面図
  1
*平*
  1
*
  1
*
 70
     0
  1
*
  1
*
  0
XRECORD
  5
119E7
102
{ACAD_REACTORS
330
118F3
102
}
330
118F3
100
AcDbXrecord
280
     1
  1
平面総合図
  1
001*,002*,004*,010*,013*,014*,015*,016*,017*,018*,019*,020*,021*,030*,031*,034*,040*,045*
  1
*
  1
*
 70
     0
  1
*
  1
*
  0
XRECORD
  5
119E8
102
{ACAD_REACTORS
330
118F3
102
}
330
118F3
100
AcDbXrecord
280
     1
  1
平面地形
  1
平面地形*,平面文字
  1
*
  1
*
 70
     0
  1
*
  1
*
  0
XRECORD
  5
119E9
102
{ACAD_REACTORS
330
118F3
102
}
330
118F3
100
AcDbXrecord
280
     1
  1
補助
  1
*補助*
  1
*
  1
*
 70
     0
  1
*
  1
*
  0
XRECORD
  5
119EA
102
{ACAD_REACTORS
330
118F3
102
}
330
118F3
100
AcDbXrecord
280
     1
  1
報告書
  1
Z*
  1
*
  1
*
 70
     0
  1
*
  1
*
  0
XRECORD
  5
119EB
102
{ACAD_REACTORS
330
118F3
102
}
330
118F3
100
AcDbXrecord
280
     1
  1
法線
  1
法線*
  1
*
  1
*
 70
     0
  1
*
  1
*
  0
XRECORD
  5
119EC
102
{ACAD_REACTORS
330
118F3
102
}
330
118F3
100
AcDbXrecord
280
     1
  1
鳳文字入力
  1
*
  1
*
  1
*
 70
     0
  1
*
  1
*
  0
XRECORD
  5
119ED
102
{ACAD_REACTORS
330
118F3
102
}
330
118F3
100
AcDbXrecord
280
     1
  1
用地
  1
y*
  1
*
  1
*
 70
     0
  1
*
  1
*
  0
DICTIONARY
  5
27B22
330
22
100
AcDbDictionary
280
     1
281
     1
  3
ACAD_XREC_ROUNDTRIP
360
27B23
  0
DICTIONARY
  5
27B20
330
1E
100
AcDbDictionary
280
     1
281
     1
  3
ACAD_XREC_ROUNDTRIP
360
27B21
  0
DICTIONARY
  5
27B24
330
26
100
AcDbDictionary
280
     1
281
     1
  3
ACAD_XREC_ROUNDTRIP
360
27B25
  0
XRECORD
  5
27B23
102
{ACAD_REACTORS
330
27B22
102
}
330
27B22
100
AcDbXrecord
280
     1
102
SHADEPLOT
 70
     0
102
SHADEPLOTRESLEVEL
 70
     2
102
SHADEPLOTCUSTOMDPI
 70
   300
  0
XRECORD
  5
27B21
102
{ACAD_REACTORS
330
27B20
102
}
330
27B20
100
AcDbXrecord
280
     1
102
SHADEPLOT
 70
     0
102
SHADEPLOTRESLEVEL
 70
     2
102
SHADEPLOTCUSTOMDPI
 70
   300
  0
XRECORD
  5
27B25
102
{ACAD_REACTORS
330
27B24
102
}
330
27B24
100
AcDbXrecord
280
     1
102
SHADEPLOT
 70
     0
102
SHADEPLOTRESLEVEL
 70
     2
102
SHADEPLOTCUSTOMDPI
 70
   300
  0
ENDSEC
  0
EOF
