  0
SECTION
  2
HEADER
  9
$ACADVER
  1
AC1009
  9
$INSBASE
 10
0.0
 20
0.0
 30
0.0
  9
$EXTMIN
 10
219648.68758944751
 20
14376.01227330835
 30
-0.0015258207003583
  9
$EXTMAX
 10
303777.37284782372
 20
73778.736900278949
 30
0.0000000349246037
  9
$LIMMIN
 10
80.0
 20
80.0
  9
$LIMMAX
 10
4120.0
 20
2890.0
  9
$ORTHOMODE
 70
     1
  9
$REGENMODE
 70
     1
  9
$FILLMODE
 70
     1
  9
$QTEXTMODE
 70
     0
  9
$MIRRTEXT
 70
     1
  9
$DRAGMODE
 70
     2
  9
$LTSCALE
 40
100.0
  9
$OSMODE
 70
   943
  9
$ATTMODE
 70
     1
  9
$TEXTSIZE
 40
2.5
  9
$TRACEWID
 40
0.05
  9
$TEXTSTYLE
  7
ＭＳ_ゴシック
  9
$CLAYER
  8
D-STR-DIM_寸法_
  9
$CELTYPE
  6
CONTINUOUS
  9
$CECOLOR
 62
     7
  9
$DIMSCALE
 40
100.0
  9
$DIMASZ
 40
1.5
  9
$DIMEXO
 40
1.0
  9
$DIMDLI
 40
3.5
  9
$DIMRND
 40
0.0
  9
$DIMDLE
 40
0.0
  9
$DIMEXE
 40
1.0
  9
$DIMTP
 40
0.0
  9
$DIMTM
 40
0.0
  9
$DIMTXT
 40
3.0
  9
$DIMCEN
 40
0.0
  9
$DIMTSZ
 40
0.0
  9
$DIMTOL
 70
     0
  9
$DIMLIM
 70
     0
  9
$DIMTIH
 70
     0
  9
$DIMTOH
 70
     0
  9
$DIMSE1
 70
     0
  9
$DIMSE2
 70
     0
  9
$DIMTAD
 70
     1
  9
$DIMZIN
 70
     8
  9
$DIMBLK
  1
OPEN
  9
$DIMASO
 70
     1
  9
$DIMSHO
 70
     1
  9
$DIMPOST
  1

  9
$DIMAPOST
  1

  9
$DIMALT
 70
     0
  9
$DIMALTD
 70
     2
  9
$DIMALTF
 40
0.03937
  9
$DIMLFAC
 40
0.2
  9
$DIMTOFL
 70
     0
  9
$DIMTVP
 40
0.0
  9
$DIMTIX
 70
     0
  9
$DIMSOXD
 70
     0
  9
$DIMSAH
 70
     0
  9
$DIMBLK1
  1

  9
$DIMBLK2
  1

  9
$DIMSTYLE
  2
1-20
  9
$DIMCLRD
 70
   256
  9
$DIMCLRE
 70
   256
  9
$DIMCLRT
 70
   256
  9
$DIMTFAC
 40
1.0
  9
$DIMGAP
 40
0.5
  9
$LUNITS
 70
     2
  9
$LUPREC
 70
     3
  9
$SKETCHINC
 40
0.1
  9
$FILLETRAD
 40
120.0
  9
$AUNITS
 70
     1
  9
$AUPREC
 70
     0
  9
$MENU
  1
acad
  9
$ELEVATION
 40
0.0
  9
$PELEVATION
 40
0.0
  9
$THICKNESS
 40
0.0
  9
$LIMCHECK
 70
     0
  9
$BLIPMODE
 70
     0
  9
$CHAMFERA
 40
0.0
  9
$CHAMFERB
 40
0.0
  9
$SKPOLY
 70
     0
  9
$TDCREATE
 40
2451381.5462085651
  9
$TDUPDATE
 40
2457061.6336771869
  9
$TDINDWG
 40
2.1240196644
  9
$TDUSRTIMER
 40
2.1240196411999999
  9
$USRTIMER
 70
     1
  9
$ANGBASE
 50
0.0
  9
$ANGDIR
 70
     0
  9
$PDMODE
 70
    34
  9
$PDSIZE
 40
250.0
  9
$PLINEWID
 40
0.0
  9
$COORDS
 70
     2
  9
$SPLFRAME
 70
     0
  9
$SPLINETYPE
 70
     6
  9
$SPLINESEGS
 70
     8
  9
$ATTDIA
 70
     1
  9
$ATTREQ
 70
     1
  9
$HANDLING
 70
     1
  9
$HANDSEED
  5
5114A
  9
$SURFTAB1
 70
     6
  9
$SURFTAB2
 70
     6
  9
$SURFTYPE
 70
     6
  9
$SURFU
 70
     6
  9
$SURFV
 70
     6
  9
$UCSNAME
  2

  9
$UCSORG
 10
0.0
 20
0.0
 30
0.0
  9
$UCSXDIR
 10
1.0
 20
0.0
 30
0.0
  9
$UCSYDIR
 10
0.0
 20
1.0
 30
0.0
  9
$PUCSNAME
  2

  9
$PUCSORG
 10
0.0
 20
0.0
 30
0.0
  9
$PUCSXDIR
 10
1.0
 20
0.0
 30
0.0
  9
$PUCSYDIR
 10
0.0
 20
1.0
 30
0.0
  9
$USERI1
 70
     0
  9
$USERI2
 70
     0
  9
$USERI3
 70
     0
  9
$USERI4
 70
     0
  9
$USERI5
 70
     0
  9
$USERR1
 40
0.0
  9
$USERR2
 40
0.0
  9
$USERR3
 40
0.0
  9
$USERR4
 40
0.0
  9
$USERR5
 40
0.0
  9
$WORLDVIEW
 70
     1
  9
$SHADEDGE
 70
     3
  9
$SHADEDIF
 70
    70
  9
$TILEMODE
 70
     1
  9
$MAXACTVP
 70
    16
  9
$PLIMCHECK
 70
     0
  9
$PEXTMIN
 10
29.068184208869919
 20
20.355983281135568
 30
0.0
  9
$PEXTMAX
 10
261.61365787982942
 20
183.20384953022
 30
0.0
  9
$PLIMMIN
 10
-3.17498779296875
 20
-3.1749999523162828
  9
$PLIMMAX
 10
293.85684204101562
 20
206.7348358631134
  9
$UNITMODE
 70
     0
  9
$VISRETAIN
 70
     0
  9
$PLINEGEN
 70
     0
  9
$PSLTSCALE
 70
     0
  0
ENDSEC
  0
SECTION
  2
TABLES
  0
TABLE
  2
VPORT
 70
     1
  0
VPORT
  2
*ACTIVE
 70
     0
 10
0.0
 20
0.0
 11
1.0
 21
1.0
 12
261713.03021863551
 22
44077.374586793652
 13
0.0
 23
0.0
 14
10.0
 24
10.0
 15
10.0
 25
10.0
 16
0.0
 26
0.0
 36
1.0
 17
0.0
 27
0.0
 37
0.0
 40
59930.748845877002
 41
1.5652818991097921
 42
50.0
 43
0.0
 44
0.0
 50
0.0
 51
0.0
 71
     0
 72
   100
 73
     1
 74
     0
 75
     0
 76
     0
 77
     0
 78
     1
  0
ENDTAB
  0
TABLE
  2
LTYPE
 70
     1
  0
LTYPE
  2
CONTINUOUS
 70
     0
  3
Solid line
 72
    65
 73
     0
 40
0.0
  0
ENDTAB
  0
TABLE
  2
LAYER
 70
     7
  0
LAYER
  2
0
 70
     0
 62
     7
  6
CONTINUOUS
  0
LAYER
  2
DEFPOINTS
 70
     0
 62
     8
  6
CONTINUOUS
  0
LAYER
  2
D-BGD_現況_
 70
     0
 62
     6
  6
CONTINUOUS
  0
LAYER
  2
D-TTL_外枠_
 70
     0
 62
     2
  6
CONTINUOUS
  0
LAYER
  2
D-STR_構造物外形線_
 70
     0
 62
     1
  6
CONTINUOUS
  0
LAYER
  2
D-TTL-TXT_文字_
 70
     0
 62
     7
  6
CONTINUOUS
  0
LAYER
  2
D-STR-DIM_寸法_
 70
     0
 62
     7
  6
CONTINUOUS
  0
ENDTAB
  0
TABLE
  2
STYLE
 70
     3
  0
STYLE
  2
STANDARD
 70
     0
 40
0.0
 41
1.0
 50
0.0
 71
     0
 42
3.5
  3
romans.shx
  4
extfont.shx
  0
STYLE
  2
ＭＳ_ゴシック
 70
     0
 40
0.0
 41
1.0
 50
0.0
 71
     0
 42
2.5
  3
txt
  4

  0
STYLE
  2
ＭＳゴシック
 70
     0
 40
0.0
 41
1.0
 50
0.0
 71
     0
 42
0.0
  3
txt
  4

  0
ENDTAB
  0
TABLE
  2
VIEW
 70
     0
  0
ENDTAB
  0
TABLE
  2
UCS
 70
     0
  0
ENDTAB
  0
TABLE
  2
APPID
 70
    12
  0
APPID
  2
ACAD
 70
     0
  0
APPID
  2
CONTENTTABDATA
 70
     0
  0
APPID
  2
CONTENTCURRENTTAB
 70
     0
  0
APPID
  2
ADE
 70
     0
  0
APPID
  2
SXFTRANS_ARX0
 70
     0
  0
APPID
  2
ACAD_PSEXT
 70
     0
  0
APPID
  2
ACAECLAYERSTANDARD
 70
     0
  0
APPID
  2
WACOM_STRING
 70
     0
  0
APPID
  2
CONTENTBLOCKICON
 70
     0
  0
APPID
  2
SXFTRANS_ARX
 70
     0
  0
APPID
  2
ACAD_NAV_VCDISPLAY
 70
     0
  0
APPID
  2
ACAD_MLEADERVER
 70
     0
  0
ENDTAB
  0
TABLE
  2
DIMSTYLE
 70
     3
  0
DIMSTYLE
  2
STANDARD
 70
     0
  3

  4

  5

  6

  7

 40
1.0
 41
0.18
 42
0.0625
 43
0.38
 44
0.18
 45
0.0
 46
0.0
 47
0.0
 48
0.0
140
0.18
141
0.09
142
0.0
143
25.399999999999999
144
1.0
145
0.0
146
1.0
147
0.09
 71
     0
 72
     0
 73
     1
 74
     1
 75
     0
 76
     0
 77
     0
 78
     0
170
     0
171
     2
172
     0
173
     0
174
     0
175
     0
176
     0
177
     0
178
     0
  0
DIMSTYLE
  2
1-20
 70
     0
  3

  4

  5
OPEN
  6

  7

 40
100.0
 41
1.5
 42
1.0
 43
3.5
 44
1.0
 45
0.0
 46
0.0
 47
0.0
 48
0.0
140
3.0
141
0.0
142
0.0
143
0.03937
144
0.2
145
0.0
146
1.0
147
0.5
 71
     0
 72
     0
 73
     0
 74
     0
 75
     0
 76
     0
 77
     1
 78
     8
170
     0
171
     2
172
     0
173
     0
174
     0
175
     0
176
   256
177
   256
178
   256
  0
ENDTAB
  0
ENDSEC
  0
SECTION
  2
BLOCKS
  0
BLOCK
  8
0
  2
$MODEL_SPACE
 70
     0
 10
0.0
 20
0.0
 30
0.0
  3
$MODEL_SPACE
  1

  0
ENDBLK
  5
7
  8
0
  0
BLOCK
 67
     1
  8
0
  2
$PAPER_SPACE
 70
     0
 10
0.0
 20
0.0
 30
0.0
  3
$PAPER_SPACE
  1

  0
ENDBLK
  5
A
 67
     1
  8
0
  0
BLOCK
  8
0
  2
_OPEN
 70
     0
 10
0.0
 20
0.0
 30
0.0
  3
_OPEN
  1

  0
LINE
  5
381BF
  8
0
  6
BYBLOCK
 62
     0
 10
-1.0
 20
0.1666666666666666
 30
0.0
 11
0.0
 21
0.0
 31
0.0
  0
LINE
  5
381C0
  8
0
  6
BYBLOCK
 62
     0
 10
0.0
 20
0.0
 30
0.0
 11
-1.0
 21
-0.1666666666666666
 31
0.0
  0
LINE
  5
381C1
  8
0
  6
BYBLOCK
 62
     0
 10
0.0
 20
0.0
 30
0.0
 11
-1.0
 21
0.0
 31
0.0
  0
ENDBLK
  5
381C2
  8
0
  0
ENDSEC
  0
SECTION
  2
ENTITIES
  0
TEXT
  5
14119
  8
D-BGD_現況_
  6
CONTINUOUS
 62
     7
 10
131498.21614208541
 20
27491.614462879879
 30
0.0
 40
500.0
  1

  7
ＭＳ_ゴシック
1001
WACOM_STRING
1002
{
1070
   301
1002
}
1001
ACAD
1000
MTEXTBEGIN
1070
    73
1070
     1
1070
    44
1040
1.0
1070
    74
1070
     0
1000
MTEXTEND
1000
MTEXTBEGIN
1070
    73
1070
     1
1070
    44
1040
1.0
1070
    74
1070
     0
1000
MTEXTEND
1000
MTEXTBEGIN
1070
    73
1070
     1
1070
    44
1040
1.0
1070
    74
1070
     0
1000
MTEXTEND
1000
MTEXTBEGIN
1070
    73
1070
     1
1070
    44
1040
1.0
1070
    74
1070
     0
1000
MTEXTEND
1000
MTEXTBEGIN
1070
    73
1070
     1
1070
    44
1040
1.0
1070
    74
1070
     0
1000
MTEXTEND
1000
MTEXTBEGIN
1070
    73
1070
     1
1070
    44
1040
1.0
1070
    74
1070
     0
1000
MTEXTEND
1000
MTEXTBEGIN
1070
    73
1070
     1
1070
    44
1040
1.0
1070
    74
1070
     0
1000
MTEXTEND
1000
MTEXTBEGIN
1070
    73
1070
     1
1070
    44
1040
1.0
1070
    74
1070
     0
1000
MTEXTEND
1000
MTEXTBEGIN
1070
    73
1070
     1
1070
    44
1040
1.0
1070
    74
1070
     0
1000
MTEXTEND
1000
MTEXTBEGIN
1070
    73
1070
     1
1070
    44
1040
1.0
1070
    74
1070
     0
1000
MTEXTEND
  0
LINE
  5
4A035
  8
D-TTL-TXT_文字_
  6
CONTINUOUS
 62
     7
 10
231719.27077417189
 20
66454.137180773381
 30
0.0
 11
233816.2058495518
 21
66454.137180773381
 31
0.0
  0
TEXT
  5
4A036
  8
D-TTL-TXT_文字_
  6
CONTINUOUS
 62
     7
 10
231769.27077417189
 20
66504.137180773381
 30
0.0
 40
500.0
  1
基本型
  7
ＭＳ_ゴシック
1001
WACOM_STRING
1002
{
1070
   301
1002
}
1001
ACAD
1000
MTEXTBEGIN
1070
    73
1070
     1
1070
    44
1040
1.0
1070
    74
1070
     0
1000
MTEXTEND
1000
MTEXTBEGIN
1070
    73
1070
     1
1070
    44
1040
1.0
1070
    74
1070
     0
1000
MTEXTEND
  0
LINE
  5
4A037
  8
D-STR_構造物外形線_
  6
CONTINUOUS
 62
     1
 10
231719.27077417189
 20
65454.137180773381
 30
0.0
 11
231719.2707741718
 21
63954.137180773381
 31
0.0
  0
LINE
  5
4A038
  8
D-STR_構造物外形線_
  6
CONTINUOUS
 62
     1
 10
231719.2707741718
 20
63954.137180773381
 30
0.0
 11
233719.2707741718
 21
63954.137180773381
 31
0.0
  0
LINE
  5
4A039
  8
D-STR_構造物外形線_
  6
CONTINUOUS
 62
     1
 10
233719.2707741718
 20
63954.137180773381
 30
0.0
 11
233719.27077417189
 21
65454.137180773381
 31
0.0
  0
LINE
  5
4A03A
  8
D-STR_構造物外形線_
  6
CONTINUOUS
 62
     1
 10
233719.27077417189
 20
65454.137180773381
 30
0.0
 11
231719.27077417189
 21
65454.137180773381
 31
0.0
  0
LINE
  5
4A03B
  8
D-STR_構造物外形線_
  6
CONTINUOUS
 62
     1
 10
237896.38547016541
 20
65079.137180773381
 30
0.0
 11
237896.38547016541
 21
64329.137180773381
 31
0.0
  0
LINE
  5
4A03C
  8
D-STR_構造物外形線_
  6
CONTINUOUS
 62
     1
 10
236246.38547016529
 20
65454.137180773381
 30
0.0
 11
236146.38547016529
 21
65379.137180773381
 31
0.0
  0
LINE
  5
4A03D
  8
D-STR_構造物外形線_
  6
CONTINUOUS
 62
     1
 10
236146.38547016529
 20
65379.137180773381
 30
0.0
 11
236146.38547016529
 21
64029.137180773381
 31
0.0
  0
LINE
  5
4A03E
  8
D-STR_構造物外形線_
  6
CONTINUOUS
 62
     1
 10
236146.38547016529
 20
64029.137180773381
 30
0.0
 11
236246.38547016529
 21
63954.137180773381
 31
0.0
  0
LINE
  5
4A03F
  8
D-STR_構造物外形線_
  6
CONTINUOUS
 62
     1
 10
233719.27077417189
 20
60217.650808941638
 30
0.0
 11
233644.27077417189
 21
60317.650808941653
 31
0.0
  0
LINE
  5
4A040
  8
D-STR_構造物外形線_
  6
CONTINUOUS
 62
     1
 10
233644.27077417189
 20
60317.650808941653
 30
0.0
 11
231794.27077417189
 21
60317.650808941653
 31
0.0
  0
LINE
  5
4A041
  8
D-STR_構造物外形線_
  6
CONTINUOUS
 62
     1
 10
231794.27077417189
 20
60317.650808941653
 30
0.0
 11
231719.27077417189
 21
60217.650808941638
 31
0.0
  0
LINE
  5
4A042
  8
D-STR_構造物外形線_
  6
CONTINUOUS
 62
     1
 10
232344.27077417189
 20
58567.650808941638
 30
0.0
 11
233094.2707741718
 21
58567.650808941638
 31
0.0
  0
LINE
  5
4A043
  8
D-STR_構造物外形線_
  6
CONTINUOUS
 62
     1
 10
236246.38547016529
 20
63954.137180773381
 30
0.0
 11
236496.38547016529
 21
63969.137180773381
 31
0.0
  0
LINE
  5
4A044
  8
D-STR_構造物外形線_
  6
CONTINUOUS
 62
     1
 10
236496.38547016529
 20
65439.137180773381
 30
0.0
 11
236246.38547016529
 21
65454.137180773381
 31
0.0
  0
LINE
  5
4A045
  8
D-STR_構造物外形線_
  6
CONTINUOUS
 62
     1
 10
236496.38547016529
 20
65439.137180773381
 30
0.0
 11
236592.8766982354
 21
65339.137180773381
 31
0.0
  0
LINE
  5
4A046
  8
D-STR_構造物外形線_
  6
CONTINUOUS
 62
     1
 10
236592.8766982354
 20
64069.137180773381
 30
0.0
 11
236496.38547016529
 21
63969.137180773381
 31
0.0
  0
LINE
  5
4A047
  8
D-STR_構造物外形線_
  6
CONTINUOUS
 62
     1
 10
236592.8766982354
 20
65339.137180773381
 30
0.0
 11
237896.38547016541
 21
65079.137180773381
 31
0.0
  0
LINE
  5
4A048
  8
D-STR_構造物外形線_
  6
CONTINUOUS
 62
     1
 10
237896.38547016541
 20
64329.137180773381
 30
0.0
 11
236592.8766982354
 21
64069.137180773381
 31
0.0
  0
LINE
  5
4A049
  8
D-STR_構造物外形線_
  6
CONTINUOUS
 62
     1
 10
231719.27077417189
 20
60217.650808941638
 30
0.0
 11
231734.27077417189
 21
59967.650808941653
 31
0.0
  0
LINE
  5
4A04A
  8
D-STR_構造物外形線_
  6
CONTINUOUS
 62
     1
 10
233704.27077417189
 20
59967.650808941653
 30
0.0
 11
233719.27077417189
 21
60217.650808941638
 31
0.0
  0
LINE
  5
4A04B
  8
D-STR_構造物外形線_
  6
CONTINUOUS
 62
     1
 10
232094.27077417189
 20
59692.650808941653
 30
0.0
 11
231734.27077417189
 21
59967.650808941653
 31
0.0
  0
LINE
  5
4A04C
  8
D-STR_構造物外形線_
  6
CONTINUOUS
 62
     1
 10
233344.27077417189
 20
59692.650808941653
 30
0.0
 11
233704.27077417189
 21
59967.650808941653
 31
0.0
  0
LINE
  5
4A04D
  8
D-STR_構造物外形線_
  6
CONTINUOUS
 62
     1
 10
232227.60410750541
 20
59092.650808941631
 30
0.0
 11
232344.27077417189
 21
58567.650808941638
 31
0.0
  0
LINE
  5
4A04E
  8
D-STR_構造物外形線_
  6
CONTINUOUS
 62
     1
 10
233094.2707741718
 20
58567.650808941638
 30
0.0
 11
233210.93744083861
 21
59092.650808941631
 31
0.0
  0
ARC
  5
4A04F
  8
D-STR_構造物外形線_
  6
CONTINUOUS
 62
     1
 10
233527.54527705381
 20
59337.10832681974
 30
0.0
 40
400.0
 50
117.27013178724999
 51
217.67225279541671
  0
ARC
  5
4A050
  8
D-STR_構造物外形線_
  6
CONTINUOUS
 62
     1
 10
231910.99627129
 20
59337.108326819784
 30
0.0
 40
400.0
 50
322.32774720458332
 51
62.729868212749949
  0
LINE
  5
4A051
  8
D-STR_構造物外形線_
  6
CONTINUOUS
 62
     1
 10
231719.27077417189
 20
52190.857166271257
 30
0.0
 11
233839.27077417201
 21
52190.857166271257
 31
0.0
  0
LINE
  5
4A052
  8
D-STR_構造物外形線_
  6
CONTINUOUS
 62
     1
 10
231719.27077417189
 20
52190.857166271257
 30
0.0
 11
231719.27077417189
 21
52690.857166271257
 31
0.0
  0
LINE
  5
4A053
  8
D-STR_構造物外形線_
  6
CONTINUOUS
 62
     1
 10
231719.27077417189
 20
52690.857166271257
 30
0.0
 11
232779.27077417189
 21
53750.857166271249
 31
0.0
  0
LINE
  5
4A054
  8
D-STR_構造物外形線_
  6
CONTINUOUS
 62
     1
 10
232779.27077417189
 20
53750.857166271249
 30
0.0
 11
233839.27077417201
 21
52690.857166271257
 31
0.0
  0
LINE
  5
4A055
  8
D-STR_構造物外形線_
  6
CONTINUOUS
 62
     1
 10
233839.27077417201
 20
52690.857166271257
 30
0.0
 11
233839.27077417201
 21
52190.857166271257
 31
0.0
  0
LINE
  5
4A056
  8
D-STR_構造物外形線_
  6
CONTINUOUS
 62
     1
 10
237896.38547016541
 20
53240.857166271249
 30
0.0
 11
237896.38547016541
 21
52565.857166271249
 31
0.0
  0
LINE
  5
4A057
  8
D-STR_構造物外形線_
  6
CONTINUOUS
 62
     1
 10
236246.38547016529
 20
53750.857166271249
 30
0.0
 11
236246.38547016529
 21
52190.857166271257
 31
0.0
  0
LINE
  5
4A058
  8
D-STR_構造物外形線_
  6
CONTINUOUS
 62
     1
 10
236246.38547016529
 20
53750.857166271249
 30
0.0
 11
236146.38547016529
 21
53675.857166271249
 31
0.0
  0
LINE
  5
4A059
  8
D-STR_構造物外形線_
  6
CONTINUOUS
 62
     1
 10
236146.38547016529
 20
53675.857166271249
 30
0.0
 11
236146.38547016529
 21
52265.857166271249
 31
0.0
  0
LINE
  5
4A05A
  8
D-STR_構造物外形線_
  6
CONTINUOUS
 62
     1
 10
236146.38547016529
 20
52265.857166271249
 30
0.0
 11
236246.38547016529
 21
52190.857166271257
 31
0.0
  0
LINE
  5
4A05B
  8
D-STR_構造物外形線_
  6
CONTINUOUS
 62
     1
 10
236246.38547016529
 20
52190.857166271257
 30
0.0
 11
236496.38547016529
 21
52215.857166271249
 31
0.0
  0
LINE
  5
4A05C
  8
D-STR_構造物外形線_
  6
CONTINUOUS
 62
     1
 10
236771.38547016529
 20
52415.857166271257
 30
0.0
 11
236496.38547016529
 21
52215.857166271249
 31
0.0
  0
LINE
  5
4A05D
  8
D-STR_構造物外形線_
  6
CONTINUOUS
 62
     1
 10
237896.38547016541
 20
52565.857166271249
 30
0.0
 11
236771.38547016529
 21
52415.857166271257
 31
0.0
  0
LINE
  5
4A05E
  8
D-STR_構造物外形線_
  6
CONTINUOUS
 62
     1
 10
236771.38547016529
 20
53440.857166271257
 30
0.0
 11
237896.38547016541
 21
53240.857166271249
 31
0.0
  0
LINE
  5
4A05F
  8
D-STR_構造物外形線_
  6
CONTINUOUS
 62
     1
 10
236246.38547016529
 20
53750.857166271249
 30
0.0
 11
236496.38547016529
 21
53700.857166271257
 31
0.0
  0
LINE
  5
4A060
  8
D-STR_構造物外形線_
  6
CONTINUOUS
 62
     1
 10
236496.38547016529
 20
53700.857166271257
 30
0.0
 11
236771.38547016529
 21
53440.857166271257
 31
0.0
  0
LINE
  5
4A061
  8
D-STR_構造物外形線_
  6
CONTINUOUS
 62
     1
 10
236246.38547016529
 20
65454.137180773381
 30
0.0
 11
236246.38547016529
 21
63954.137180773381
 31
0.0
  0
LINE
  5
4A062
  8
D-STR_構造物外形線_
  6
CONTINUOUS
 62
     1
 10
236496.38547016529
 20
65439.137180773381
 30
0.0
 11
236496.38547016529
 21
63969.137180773381
 31
0.0
  0
LINE
  5
4A063
  8
D-STR_構造物外形線_
  6
CONTINUOUS
 62
     1
 10
236592.8766982354
 20
65339.137180773381
 30
0.0
 11
236592.8766982354
 21
64069.137180773381
 31
0.0
  0
LINE
  5
4A064
  8
D-STR_構造物外形線_
  6
CONTINUOUS
 62
     1
 10
236496.38547016529
 20
53700.857166271257
 30
0.0
 11
236496.38547016529
 21
52215.857166271249
 31
0.0
  0
LINE
  5
4A065
  8
D-STR_構造物外形線_
  6
CONTINUOUS
 62
     1
 10
236771.38547016529
 20
53440.857166271257
 30
0.0
 11
236771.38547016529
 21
52415.857166271257
 31
0.0
  0
LINE
  5
4A066
  8
D-STR_構造物外形線_
  6
CONTINUOUS
 62
     1
 10
231719.27077417189
 20
60217.650808941638
 30
0.0
 11
233719.27077417189
 21
60217.650808941638
 31
0.0
  0
LINE
  5
4A067
  8
D-STR_構造物外形線_
  6
CONTINUOUS
 62
     1
 10
231734.27077417189
 20
59967.650808941653
 30
0.0
 11
233704.27077417189
 21
59967.650808941653
 31
0.0
  0
LINE
  5
4A068
  8
D-STR_構造物外形線_
  6
CONTINUOUS
 62
     1
 10
253885.89213814811
 20
51940.857166271249
 30
0.0
 11
256005.89213814811
 21
51940.857166271249
 31
0.0
  0
LINE
  5
4A069
  8
D-STR_構造物外形線_
  6
CONTINUOUS
 62
     1
 10
253885.89213814811
 20
51940.857166271249
 30
0.0
 11
253885.89213814811
 21
52690.857166271278
 31
0.0
  0
LINE
  5
4A06A
  8
D-STR_構造物外形線_
  6
CONTINUOUS
 62
     1
 10
253885.89213814811
 20
52690.857166271257
 30
0.0
 11
254945.89213814811
 21
53750.857166271249
 31
0.0
  0
LINE
  5
4A06B
  8
D-STR_構造物外形線_
  6
CONTINUOUS
 62
     1
 10
254945.89213814811
 20
53750.857166271249
 30
0.0
 11
256005.89213814811
 21
52690.857166271257
 31
0.0
  0
LINE
  5
4A06C
  8
D-STR_構造物外形線_
  6
CONTINUOUS
 62
     1
 10
256005.89213814811
 20
52690.857166271227
 30
0.0
 11
256005.89213814811
 21
51940.857166271249
 31
0.0
  0
LINE
  5
4A06D
  8
D-STR_構造物外形線_
  6
CONTINUOUS
 62
     1
 10
261278.67326080939
 20
53065.857166271249
 30
0.0
 11
261278.6732608095
 21
52390.857166271249
 31
0.0
  0
LINE
  5
4A06E
  8
D-STR_構造物外形線_
  6
CONTINUOUS
 62
     1
 10
259628.6732608095
 20
53750.857166271308
 30
0.0
 11
259628.6732608095
 21
51940.857166271249
 31
0.0
  0
LINE
  5
4A06F
  8
D-STR_構造物外形線_
  6
CONTINUOUS
 62
     1
 10
259628.67326080939
 20
53750.857166271249
 30
0.0
 11
259528.67326080939
 21
53675.857166271249
 31
0.0
  0
LINE
  5
4A070
  8
D-STR_構造物外形線_
  6
CONTINUOUS
 62
     1
 10
259528.6732608095
 20
53675.857166271308
 30
0.0
 11
259528.6732608095
 21
52015.857166271257
 31
0.0
  0
LINE
  5
4A071
  8
D-STR_構造物外形線_
  6
CONTINUOUS
 62
     1
 10
259528.6732608095
 20
52015.857166271257
 30
0.0
 11
259628.6732608095
 21
51940.857166271249
 31
0.0
  0
LINE
  5
4A072
  8
D-STR_構造物外形線_
  6
CONTINUOUS
 62
     1
 10
253885.89213814811
 20
49528.124551551598
 30
0.0
 11
256005.89213814811
 21
49528.124551551598
 31
0.0
  0
LINE
  5
4A073
  8
D-STR_構造物外形線_
  6
CONTINUOUS
 62
     1
 10
256005.89213814811
 20
49528.124551551598
 30
0.0
 11
255930.89213814811
 21
49628.124551551613
 31
0.0
  0
LINE
  5
4A074
  8
D-STR_構造物外形線_
  6
CONTINUOUS
 62
     1
 10
255930.89213814811
 20
49628.124551551613
 30
0.0
 11
253960.89213814811
 21
49628.124551551613
 31
0.0
  0
LINE
  5
4A075
  8
D-STR_構造物外形線_
  6
CONTINUOUS
 62
     1
 10
253960.89213814811
 20
49628.124551551613
 30
0.0
 11
253885.89213814811
 21
49528.124551551598
 31
0.0
  0
LINE
  5
4A076
  8
D-STR_構造物外形線_
  6
CONTINUOUS
 62
     1
 10
259628.6732608095
 20
51940.857166271249
 30
0.0
 11
259878.67326080959
 21
51965.857166271257
 31
0.0
  0
LINE
  5
4A077
  8
D-STR_構造物外形線_
  6
CONTINUOUS
 62
     1
 10
260153.67326080939
 20
52190.857166271257
 30
0.0
 11
259878.67326080959
 21
51965.857166271257
 31
0.0
  0
LINE
  5
4A078
  8
D-STR_構造物外形線_
  6
CONTINUOUS
 62
     1
 10
261278.6732608095
 20
52390.857166271249
 30
0.0
 11
260153.67326080939
 21
52190.857166271257
 31
0.0
  0
LINE
  5
4A079
  8
D-STR_構造物外形線_
  6
CONTINUOUS
 62
     1
 10
260153.67326080939
 20
53315.857166271227
 30
0.0
 11
261278.67326080939
 21
53065.857166271227
 31
0.0
  0
LINE
  5
4A07A
  8
D-STR_構造物外形線_
  6
CONTINUOUS
 62
     1
 10
259628.67326080939
 20
53750.857166271249
 30
0.0
 11
259878.67326080939
 21
53700.857166271257
 31
0.0
  0
LINE
  5
4A07B
  8
D-STR_構造物外形線_
  6
CONTINUOUS
 62
     1
 10
259878.67326080939
 20
53700.857166271257
 30
0.0
 11
260153.67326080939
 21
53315.857166271257
 31
0.0
  0
LINE
  5
4A07C
  8
D-STR_構造物外形線_
  6
CONTINUOUS
 62
     1
 10
259878.67326080959
 20
53700.857166271227
 30
0.0
 11
259878.67326080959
 21
51965.857166271257
 31
0.0
  0
LINE
  5
4A07D
  8
D-STR_構造物外形線_
  6
CONTINUOUS
 62
     1
 10
260153.67326080939
 20
53315.857166271227
 30
0.0
 11
260153.67326080939
 21
52190.857166271257
 31
0.0
  0
LINE
  5
4A07E
  8
D-STR_構造物外形線_
  6
CONTINUOUS
 62
     1
 10
253885.89213814811
 20
49528.124551551598
 30
0.0
 11
253910.89213814811
 21
49278.124551551598
 31
0.0
  0
LINE
  5
4A07F
  8
D-STR_構造物外形線_
  6
CONTINUOUS
 62
     1
 10
256005.89213814811
 20
49528.124551551598
 30
0.0
 11
255980.89213814811
 21
49278.124551551598
 31
0.0
  0
LINE
  5
4A080
  8
D-STR_構造物外形線_
  6
CONTINUOUS
 62
     1
 10
255980.89213814811
 20
49278.124551551598
 30
0.0
 11
253910.89213814811
 21
49278.124551551598
 31
0.0
  0
LINE
  5
4A081
  8
D-STR_構造物外形線_
  6
CONTINUOUS
 62
     1
 10
254320.89213814811
 20
49003.124551551613
 30
0.0
 11
255570.89213814811
 21
49003.124551551613
 31
0.0
  0
LINE
  5
4A082
  8
D-STR_構造物外形線_
  6
CONTINUOUS
 62
     1
 10
254570.89213814811
 20
47878.124551551598
 30
0.0
 11
255320.89213814811
 21
47878.124551551598
 31
0.0
  0
LINE
  5
4A083
  8
D-STR_構造物外形線_
  6
CONTINUOUS
 62
     1
 10
254570.89213814811
 20
47878.124551551598
 30
0.0
 11
254454.22547148139
 21
48403.124551551649
 31
0.0
  0
LINE
  5
4A084
  8
D-STR_構造物外形線_
  6
CONTINUOUS
 62
     1
 10
255320.89213814811
 20
47878.124551551598
 30
0.0
 11
255437.5588048147
 21
48403.124551551591
 31
0.0
  0
ARC
  5
4A085
  8
D-STR_構造物外形線_
  6
CONTINUOUS
 62
     1
 10
254137.61763526619
 20
48647.582069429729
 30
0.0
 40
400.0
 50
322.32774720458332
 51
62.729868212749949
  0
ARC
  5
4A086
  8
D-STR_構造物外形線_
  6
CONTINUOUS
 62
     1
 10
255754.16664102999
 20
48647.5820694297
 30
0.0
 40
400.0
 50
117.27013178724999
 51
217.67225279541671
  0
LINE
  5
4A087
  8
D-STR_構造物外形線_
  6
CONTINUOUS
 62
     1
 10
253885.89213814811
 20
65454.137180773381
 30
0.0
 11
253885.89213814811
 21
62624.137180773381
 31
0.0
  0
LINE
  5
4A088
  8
D-STR_構造物外形線_
  6
CONTINUOUS
 62
     1
 10
253885.89213814811
 20
65454.137180773381
 30
0.0
 11
254385.89213814811
 21
65454.137180773381
 31
0.0
  0
LINE
  5
4A089
  8
D-STR_構造物外形線_
  6
CONTINUOUS
 62
     1
 10
254385.89213814811
 20
65454.137180773381
 30
0.0
 11
255800.89213814811
 21
64039.137180773381
 31
0.0
  0
LINE
  5
4A08A
  8
D-STR_構造物外形線_
  6
CONTINUOUS
 62
     1
 10
255800.89213814811
 20
64039.137180773381
 30
0.0
 11
254385.89213814811
 21
62624.137180773381
 31
0.0
  0
LINE
  5
4A08B
  8
D-STR_構造物外形線_
  6
CONTINUOUS
 62
     1
 10
254385.89213814811
 20
62624.137180773381
 30
0.0
 11
253885.89213814819
 21
62624.137180773381
 31
0.0
  0
LINE
  5
4A08C
  8
D-STR_構造物外形線_
  6
CONTINUOUS
 62
     1
 10
253885.89213814811
 20
60217.650808941638
 30
0.0
 11
255800.89213814811
 21
60217.650808941638
 31
0.0
  0
LINE
  5
4A08D
  8
D-STR_構造物外形線_
  6
CONTINUOUS
 62
     1
 10
259628.67326080939
 20
65454.137180773381
 30
0.0
 11
259628.67326080939
 21
62624.137180773381
 31
0.0
  0
LINE
  5
4A08E
  8
D-STR_構造物外形線_
  6
CONTINUOUS
 62
     1
 10
253885.89213814811
 20
60217.650808941638
 30
0.0
 11
253960.89213814811
 21
60317.650808941653
 31
0.0
  0
LINE
  5
4A08F
  8
D-STR_構造物外形線_
  6
CONTINUOUS
 62
     1
 10
253960.89213814811
 20
60317.650808941653
 30
0.0
 11
255725.89213814811
 21
60317.650808941653
 31
0.0
  0
LINE
  5
4A090
  8
D-STR_構造物外形線_
  6
CONTINUOUS
 62
     1
 10
255725.89213814811
 20
60317.650808941653
 30
0.0
 11
255800.89213814811
 21
60217.650808941638
 31
0.0
  0
LINE
  5
4A091
  8
D-STR_構造物外形線_
  6
CONTINUOUS
 62
     1
 10
259628.67326080939
 20
65454.137180773381
 30
0.0
 11
259528.67326080939
 21
65379.137180773381
 31
0.0
  0
LINE
  5
4A092
  8
D-STR_構造物外形線_
  6
CONTINUOUS
 62
     1
 10
259528.67326080939
 20
65379.137180773381
 30
0.0
 11
259528.6732608095
 21
62699.137180773381
 31
0.0
  0
LINE
  5
4A093
  8
D-STR_構造物外形線_
  6
CONTINUOUS
 62
     1
 10
259528.6732608095
 20
62699.137180773381
 30
0.0
 11
259628.67326080939
 21
62624.137180773381
 31
0.0
  0
LINE
  5
4A094
  8
D-STR_構造物外形線_
  6
CONTINUOUS
 62
     1
 10
255980.89213814811
 20
49278.124551551598
 30
0.0
 11
255570.89213814811
 21
49003.124551551613
 31
0.0
  0
LINE
  5
4A095
  8
D-STR_構造物外形線_
  6
CONTINUOUS
 62
     1
 10
253910.89213814811
 20
49278.124551551598
 30
0.0
 11
254320.89213814811
 21
49003.124551551613
 31
0.0
  0
LINE
  5
4A096
  8
D-STR_構造物外形線_
  6
CONTINUOUS
 62
     1
 10
231719.27077417189
 20
49528.124551551598
 30
0.0
 11
233839.27077417201
 21
49528.124551551598
 31
0.0
  0
LINE
  5
4A097
  8
D-STR_構造物外形線_
  6
CONTINUOUS
 62
     1
 10
233839.27077417201
 20
49528.124551551598
 30
0.0
 11
233764.27077417201
 21
49628.124551551613
 31
0.0
  0
LINE
  5
4A098
  8
D-STR_構造物外形線_
  6
CONTINUOUS
 62
     1
 10
233764.27077417201
 20
49628.124551551613
 30
0.0
 11
231794.27077417189
 21
49628.124551551613
 31
0.0
  0
LINE
  5
4A099
  8
D-STR_構造物外形線_
  6
CONTINUOUS
 62
     1
 10
231794.27077417189
 20
49628.124551551613
 30
0.0
 11
231719.27077417189
 21
49528.124551551598
 31
0.0
  0
LINE
  5
4A09A
  8
D-STR_構造物外形線_
  6
CONTINUOUS
 62
     1
 10
231719.27077417189
 20
49528.124551551598
 30
0.0
 11
231744.27077417189
 21
49278.124551551598
 31
0.0
  0
LINE
  5
4A09B
  8
D-STR_構造物外形線_
  6
CONTINUOUS
 62
     1
 10
233839.27077417201
 20
49528.124551551598
 30
0.0
 11
233814.27077417189
 21
49278.124551551598
 31
0.0
  0
LINE
  5
4A09C
  8
D-STR_構造物外形線_
  6
CONTINUOUS
 62
     1
 10
233814.27077417189
 20
49278.124551551598
 30
0.0
 11
231744.27077417189
 21
49278.124551551598
 31
0.0
  0
LINE
  5
4A09D
  8
D-STR_構造物外形線_
  6
CONTINUOUS
 62
     1
 10
232154.27077417189
 20
49003.124551551613
 30
0.0
 11
233404.27077417189
 21
49003.124551551613
 31
0.0
  0
LINE
  5
4A09E
  8
D-STR_構造物外形線_
  6
CONTINUOUS
 62
     1
 10
232404.27077417189
 20
47878.124551551598
 30
0.0
 11
233154.27077417201
 21
47878.124551551598
 31
0.0
  0
LINE
  5
4A09F
  8
D-STR_構造物外形線_
  6
CONTINUOUS
 62
     1
 10
232404.27077417189
 20
47878.124551551598
 30
0.0
 11
232287.60410750529
 21
48403.124551551649
 31
0.0
  0
LINE
  5
4A0A0
  8
D-STR_構造物外形線_
  6
CONTINUOUS
 62
     1
 10
233154.27077417201
 20
47878.124551551598
 30
0.0
 11
233270.93744083861
 21
48403.124551551591
 31
0.0
  0
ARC
  5
4A0A1
  8
D-STR_構造物外形線_
  6
CONTINUOUS
 62
     1
 10
231970.99627129
 20
48647.582069429729
 30
0.0
 40
400.0
 50
322.32774720458332
 51
62.729868212749949
  0
ARC
  5
4A0A2
  8
D-STR_構造物外形線_
  6
CONTINUOUS
 62
     1
 10
233587.54527705381
 20
48647.5820694297
 30
0.0
 40
400.0
 50
117.27013178724999
 51
217.67225279541671
  0
LINE
  5
4A0A3
  8
D-STR_構造物外形線_
  6
CONTINUOUS
 62
     1
 10
233814.27077417189
 20
49278.124551551598
 30
0.0
 11
233404.27077417189
 21
49003.124551551613
 31
0.0
  0
LINE
  5
4A0A4
  8
D-STR_構造物外形線_
  6
CONTINUOUS
 62
     1
 10
231744.27077417189
 20
49278.124551551598
 30
0.0
 11
232154.27077417189
 21
49003.124551551613
 31
0.0
  0
LINE
  5
4A0A5
  8
D-STR_構造物外形線_
  6
CONTINUOUS
 62
     1
 10
261278.67326080939
 20
64414.137180773381
 30
0.0
 11
261278.67326080939
 21
63664.137180773381
 31
0.0
  0
LINE
  5
4A0A6
  8
D-STR_構造物外形線_
  6
CONTINUOUS
 62
     1
 10
259628.67326080939
 20
65454.137180773381
 30
0.0
 11
259878.67326080939
 21
65429.137180773381
 31
0.0
  0
LINE
  5
4A0A7
  8
D-STR_構造物外形線_
  6
CONTINUOUS
 62
     1
 10
259878.67326080939
 20
65429.137180773381
 30
0.0
 11
259878.67326080939
 21
62649.137180773367
 31
0.0
  0
LINE
  5
4A0A8
  8
D-STR_構造物外形線_
  6
CONTINUOUS
 62
     1
 10
259878.67326080939
 20
62649.137180773367
 30
0.0
 11
259628.67326080939
 21
62624.137180773381
 31
0.0
  0
LINE
  5
4A0A9
  8
D-STR_構造物外形線_
  6
CONTINUOUS
 62
     1
 10
259878.67326080939
 20
62649.137180773367
 30
0.0
 11
260153.67326080939
 21
63289.137180773381
 31
0.0
  0
LINE
  5
4A0AA
  8
D-STR_構造物外形線_
  6
CONTINUOUS
 62
     1
 10
260753.6732608095
 20
63489.137180773381
 30
0.0
 11
261278.67326080939
 21
63664.137180773381
 31
0.0
  0
LINE
  5
4A0AB
  8
D-STR_構造物外形線_
  6
CONTINUOUS
 62
     1
 10
259878.67326080939
 20
65429.137180773381
 30
0.0
 11
260153.67326080939
 21
64789.137180773381
 31
0.0
  0
LINE
  5
4A0AC
  8
D-STR_構造物外形線_
  6
CONTINUOUS
 62
     1
 10
260753.6732608095
 20
64589.137180773381
 30
0.0
 11
261278.67326080939
 21
64414.137180773381
 31
0.0
  0
ARC
  5
4A0AD
  8
D-STR_構造物外形線_
  6
CONTINUOUS
 62
     1
 10
260531.1329277335
 20
64921.516181545841
 30
0.0
 40
400.0
 50
199.32629508425731
 51
303.8038072698987
  0
ARC
  5
4A0AE
  8
D-STR_構造物外形線_
  6
CONTINUOUS
 62
     1
 10
260531.1329277335
 20
63156.758180000928
 30
0.0
 40
400.0
 50
56.196192730101302
 51
160.67370491574269
  0
LINE
  5
4A0AF
  8
D-STR_構造物外形線_
  6
CONTINUOUS
 62
     1
 10
253885.89213814811
 20
60217.650808941638
 30
0.0
 11
253910.89213814811
 21
59967.650808941653
 31
0.0
  0
LINE
  5
4A0B0
  8
D-STR_構造物外形線_
  6
CONTINUOUS
 62
     1
 10
253910.89213814811
 20
59967.650808941653
 30
0.0
 11
255750.89213814811
 21
59967.650808941653
 31
0.0
  0
LINE
  5
4A0B1
  8
D-STR_構造物外形線_
  6
CONTINUOUS
 62
     1
 10
255750.89213814811
 20
59967.650808941653
 30
0.0
 11
255800.89213814811
 21
60217.650808941638
 31
0.0
  0
LINE
  5
4A0B2
  8
D-STR_構造物外形線_
  6
CONTINUOUS
 62
     1
 10
253910.89213814811
 20
59967.650808941653
 30
0.0
 11
254135.89213814811
 21
59692.650808941653
 31
0.0
  0
LINE
  5
4A0B3
  8
D-STR_構造物外形線_
  6
CONTINUOUS
 62
     1
 10
254135.89213814811
 20
59692.650808941653
 30
0.0
 11
255310.89213814819
 21
59692.650808941653
 31
0.0
  0
LINE
  5
4A0B4
  8
D-STR_構造物外形線_
  6
CONTINUOUS
 62
     1
 10
255310.89213814819
 20
59692.650808941653
 30
0.0
 11
255750.89213814811
 21
59967.650808941653
 31
0.0
  0
LINE
  5
4A0B5
  8
D-STR_構造物外形線_
  6
CONTINUOUS
 62
     1
 10
254310.89213814811
 20
58567.650808941638
 30
0.0
 11
254985.89213814811
 21
58567.650808941638
 31
0.0
  0
LINE
  5
4A0B6
  8
D-STR_構造物外形線_
  6
CONTINUOUS
 62
     1
 10
254135.89213814811
 20
59692.650808941653
 30
0.0
 11
254310.89213814811
 21
58567.650808941638
 31
0.0
  0
LINE
  5
4A0B7
  8
D-STR_構造物外形線_
  6
CONTINUOUS
 62
     1
 10
255310.89213814819
 20
59692.650808941653
 30
0.0
 11
254985.89213814811
 21
58567.650808941638
 31
0.0
  0
LINE
  5
4A0B8
  8
D-TTL-TXT_文字_
  6
CONTINUOUS
 62
     7
 10
253885.89213814811
 20
66454.137180773381
 30
0.0
 11
255982.19277941081
 21
66454.137180773352
 31
0.0
  0
TEXT
  5
4A0B9
  8
D-TTL-TXT_文字_
  6
CONTINUOUS
 62
     7
 10
253935.89213814811
 20
66504.137180773381
 30
0.0
 40
500.0
  1
側石型
  7
ＭＳ_ゴシック
1001
WACOM_STRING
1002
{
1070
   301
1002
}
1001
ACAD
1000
MTEXTBEGIN
1070
    73
1070
     1
1070
    44
1040
1.0
1070
    74
1070
     0
1000
MTEXTEND
1000
MTEXTBEGIN
1070
    73
1070
     1
1070
    44
1040
1.0
1070
    74
1070
     0
1000
MTEXTEND
  0
LINE
  5
4A0BA
  8
D-TTL-TXT_文字_
  6
CONTINUOUS
 62
     7
 10
231719.27077417189
 20
55492.688620797489
 30
0.0
 11
236762.90635716601
 21
55492.688620797489
 31
0.0
  0
TEXT
  5
4A0BB
  8
D-TTL-TXT_文字_
  6
CONTINUOUS
 62
     7
 10
231769.27077417189
 20
55542.688620797489
 30
0.0
 40
500.0
  1
根石・天端　100
  7
ＭＳ_ゴシック
1001
WACOM_STRING
1002
{
1070
   301
1002
}
1001
ACAD
1000
MTEXTBEGIN
1070
    73
1070
     1
1070
    44
1040
1.0
1070
    74
1070
     0
1000
MTEXTEND
1000
MTEXTBEGIN
1070
    73
1070
     1
1070
    44
1040
1.0
1070
    74
1070
     0
1000
MTEXTEND
  0
LINE
  5
4A0BC
  8
D-TTL-TXT_文字_
  6
CONTINUOUS
 62
     7
 10
253885.89213814811
 20
55492.688620797489
 30
0.0
 11
258929.52772114211
 21
55492.688620797489
 31
0.0
  0
TEXT
  5
4A0BD
  8
D-TTL-TXT_文字_
  6
CONTINUOUS
 62
     7
 10
253935.89213814811
 20
55542.688620797489
 30
0.0
 40
500.0
  1
根石・天端　150
  7
ＭＳ_ゴシック
1001
WACOM_STRING
1002
{
1070
   301
1002
}
1001
ACAD
1000
MTEXTBEGIN
1070
    73
1070
     1
1070
    44
1040
1.0
1070
    74
1070
     0
1000
MTEXTEND
1000
MTEXTBEGIN
1070
    73
1070
     1
1070
    44
1040
1.0
1070
    74
1070
     0
1000
MTEXTEND
  0
LINE
  5
4A0BE
  8
D-STR_構造物外形線_
  6
CONTINUOUS
 62
     1
 10
253885.89213814811
 20
39380.946864164041
 30
0.0
 11
253885.89213814811
 21
37215.946864164041
 31
0.0
  0
LINE
  5
4A0BF
  8
D-STR_構造物外形線_
  6
CONTINUOUS
 62
     1
 10
253885.89213814811
 20
37215.946864164041
 30
0.0
 11
255800.89213814799
 21
37215.946864164041
 31
0.0
  0
LINE
  5
4A0C0
  8
D-STR_構造物外形線_
  6
CONTINUOUS
 62
     1
 10
253885.89213814811
 20
39380.946864164041
 30
0.0
 11
254385.89213814811
 21
39380.946864164041
 31
0.0
  0
LINE
  5
4A0C1
  8
D-STR_構造物外形線_
  6
CONTINUOUS
 62
     1
 10
254385.89213814811
 20
39380.946864164041
 30
0.0
 11
255800.89213814799
 21
37965.946864164041
 31
0.0
  0
LINE
  5
4A0C2
  8
D-STR_構造物外形線_
  6
CONTINUOUS
 62
     1
 10
255800.89213814799
 20
37965.946864164041
 30
0.0
 11
255800.89213814799
 21
37215.946864164041
 31
0.0
  0
LINE
  5
4A0C3
  8
D-STR_構造物外形線_
  6
CONTINUOUS
 62
     1
 10
253885.89213814811
 20
34217.650808941653
 30
0.0
 11
255800.89213814799
 21
34217.650808941653
 31
0.0
  0
LINE
  5
4A0C4
  8
D-STR_構造物外形線_
  6
CONTINUOUS
 62
     1
 10
253885.89213814811
 20
34217.650808941653
 30
0.0
 11
253960.89213814811
 21
34317.650808941653
 31
0.0
  0
LINE
  5
4A0C5
  8
D-STR_構造物外形線_
  6
CONTINUOUS
 62
     1
 10
253960.89213814811
 20
34317.650808941653
 30
0.0
 11
255725.89213814799
 21
34317.650808941653
 31
0.0
  0
LINE
  5
4A0C6
  8
D-STR_構造物外形線_
  6
CONTINUOUS
 62
     1
 10
255725.89213814799
 20
34317.650808941653
 30
0.0
 11
255800.89213814799
 21
34217.650808941653
 31
0.0
  0
LINE
  5
4A0C7
  8
D-STR_構造物外形線_
  6
CONTINUOUS
 62
     1
 10
253885.89213814811
 20
34217.650808941653
 30
0.0
 11
253910.89213814799
 21
33967.650808941638
 31
0.0
  0
LINE
  5
4A0C8
  8
D-STR_構造物外形線_
  6
CONTINUOUS
 62
     1
 10
253910.89213814799
 20
33967.650808941638
 30
0.0
 11
255775.89213814811
 21
33967.650808941638
 31
0.0
  0
LINE
  5
4A0C9
  8
D-STR_構造物外形線_
  6
CONTINUOUS
 62
     1
 10
255775.89213814811
 20
33967.650808941638
 30
0.0
 11
255800.89213814799
 21
34217.650808941653
 31
0.0
  0
LINE
  5
4A0CA
  8
D-STR_構造物外形線_
  6
CONTINUOUS
 62
     1
 10
254260.89213814799
 20
33692.650808941653
 30
0.0
 11
255385.89213814799
 21
33692.650808941653
 31
0.0
  0
LINE
  5
4A0CB
  8
D-STR_構造物外形線_
  6
CONTINUOUS
 62
     1
 10
255385.89213814799
 20
33692.650808941653
 30
0.0
 11
255775.89213814811
 21
33967.650808941638
 31
0.0
  0
LINE
  5
4A0CC
  8
D-STR_構造物外形線_
  6
CONTINUOUS
 62
     1
 10
253910.89213814799
 20
33967.650808941638
 30
0.0
 11
254260.89213814799
 21
33692.650808941653
 31
0.0
  0
LINE
  5
4A0CD
  8
D-STR_構造物外形線_
  6
CONTINUOUS
 62
     1
 10
254485.89213814799
 20
32567.650808941649
 30
0.0
 11
255160.89213814799
 21
32567.650808941649
 31
0.0
  0
LINE
  5
4A0CE
  8
D-STR_構造物外形線_
  6
CONTINUOUS
 62
     1
 10
254260.89213814799
 20
33692.650808941653
 30
0.0
 11
254485.89213814799
 21
32567.650808941649
 31
0.0
  0
LINE
  5
4A0CF
  8
D-STR_構造物外形線_
  6
CONTINUOUS
 62
     1
 10
255385.89213814799
 20
33692.650808941653
 30
0.0
 11
255160.89213814799
 21
32567.650808941649
 31
0.0
  0
LINE
  5
4A0D0
  8
D-STR_構造物外形線_
  6
CONTINUOUS
 62
     1
 10
259628.67326080939
 20
39380.946864164041
 30
0.0
 11
259628.67326080939
 21
37215.946864164041
 31
0.0
  0
LINE
  5
4A0D1
  8
D-STR_構造物外形線_
  6
CONTINUOUS
 62
     1
 10
259628.67326080939
 20
39380.946864164041
 30
0.0
 11
259528.6732608093
 21
39305.946864164041
 31
0.0
  0
LINE
  5
4A0D2
  8
D-STR_構造物外形線_
  6
CONTINUOUS
 62
     1
 10
259528.6732608093
 20
39305.946864164041
 30
0.0
 11
259528.6732608093
 21
37290.946864164041
 31
0.0
  0
LINE
  5
4A0D3
  8
D-STR_構造物外形線_
  6
CONTINUOUS
 62
     1
 10
259528.6732608093
 20
37290.946864164041
 30
0.0
 11
259628.67326080939
 21
37215.946864164041
 31
0.0
  0
LINE
  5
4A0D4
  8
D-STR_構造物外形線_
  6
CONTINUOUS
 62
     1
 10
259628.67326080939
 20
39380.946864164041
 30
0.0
 11
259878.67326080939
 21
39355.946864164041
 31
0.0
  0
LINE
  5
4A0D5
  8
D-STR_構造物外形線_
  6
CONTINUOUS
 62
     1
 10
259878.67326080939
 20
39355.946864164041
 30
0.0
 11
259878.67326080939
 21
37240.946864164041
 31
0.0
  0
LINE
  5
4A0D6
  8
D-STR_構造物外形線_
  6
CONTINUOUS
 62
     1
 10
259878.67326080939
 20
37240.946864164041
 30
0.0
 11
259628.67326080939
 21
37215.946864164041
 31
0.0
  0
LINE
  5
4A0D7
  8
D-STR_構造物外形線_
  6
CONTINUOUS
 62
     1
 10
259878.67326080939
 20
39355.946864164041
 30
0.0
 11
260153.67326080939
 21
38923.446864164041
 31
0.0
  0
LINE
  5
4A0D8
  8
D-STR_構造物外形線_
  6
CONTINUOUS
 62
     1
 10
259878.67326080939
 20
37240.946864164041
 30
0.0
 11
260153.67326080939
 21
37673.446864164041
 31
0.0
  0
LINE
  5
4A0D9
  8
D-STR_構造物外形線_
  6
CONTINUOUS
 62
     1
 10
261278.67326080939
 20
38673.446864164041
 30
0.0
 11
261278.67326080939
 21
37923.446864164041
 31
0.0
  0
LINE
  5
4A0DA
  8
D-STR_構造物外形線_
  6
CONTINUOUS
 62
     1
 10
261278.67326080939
 20
38673.446864164041
 30
0.0
 11
260728.67326080939
 21
38795.669086386268
 31
0.0
  0
LINE
  5
4A0DB
  8
D-STR_構造物外形線_
  6
CONTINUOUS
 62
     1
 10
260728.6732608093
 20
37801.22464194183
 30
0.0
 11
261278.67326080939
 21
37923.446864164041
 31
0.0
  0
ARC
  5
4A0DC
  8
D-STR_構造物外形線_
  6
CONTINUOUS
 62
     1
 10
260499.88971200711
 20
39123.782005664703
 30
0.0
 40
400.0
 50
210.05544745721059
 51
304.88693712574138
  0
ARC
  5
4A0DD
  8
D-STR_構造物外形線_
  6
CONTINUOUS
 62
     1
 10
260499.88971200711
 20
37473.11172266338
 30
0.0
 40
400.0
 50
55.113062874258603
 51
149.94455254278941
  0
LINE
  5
4A0DE
  8
D-STR_構造物外形線_
  6
CONTINUOUS
 62
     1
 10
231719.27077417189
 20
39380.946864164041
 30
0.0
 11
231719.27077417189
 21
37465.946864164041
 31
0.0
  0
LINE
  5
4A0DF
  8
D-STR_構造物外形線_
  6
CONTINUOUS
 62
     1
 10
231719.27077417189
 20
37465.946864164041
 30
0.0
 11
233634.27077417189
 21
37465.946864164041
 31
0.0
  0
LINE
  5
4A0E0
  8
D-STR_構造物外形線_
  6
CONTINUOUS
 62
     1
 10
231719.27077417189
 20
39380.946864164041
 30
0.0
 11
232219.27077417189
 21
39380.946864164041
 31
0.0
  0
LINE
  5
4A0E1
  8
D-STR_構造物外形線_
  6
CONTINUOUS
 62
     1
 10
232219.27077417189
 20
39380.946864164041
 30
0.0
 11
233634.27077417189
 21
37965.946864164041
 31
0.0
  0
LINE
  5
4A0E2
  8
D-STR_構造物外形線_
  6
CONTINUOUS
 62
     1
 10
233634.27077417189
 20
37965.946864164041
 30
0.0
 11
233634.27077417189
 21
37465.946864164041
 31
0.0
  0
LINE
  5
4A0E3
  8
D-STR_構造物外形線_
  6
CONTINUOUS
 62
     1
 10
231719.27077417189
 20
34217.650808941653
 30
0.0
 11
233634.27077417189
 21
34217.650808941653
 31
0.0
  0
LINE
  5
4A0E4
  8
D-STR_構造物外形線_
  6
CONTINUOUS
 62
     1
 10
231719.27077417189
 20
34217.650808941653
 30
0.0
 11
231794.27077417189
 21
34317.650808941653
 31
0.0
  0
LINE
  5
4A0E5
  8
D-STR_構造物外形線_
  6
CONTINUOUS
 62
     1
 10
231794.27077417189
 20
34317.650808941653
 30
0.0
 11
233559.27077417189
 21
34317.650808941653
 31
0.0
  0
LINE
  5
4A0E6
  8
D-STR_構造物外形線_
  6
CONTINUOUS
 62
     1
 10
233559.27077417189
 20
34317.650808941653
 30
0.0
 11
233634.27077417189
 21
34217.650808941653
 31
0.0
  0
LINE
  5
4A0E7
  8
D-STR_構造物外形線_
  6
CONTINUOUS
 62
     1
 10
231719.27077417189
 20
34217.650808941653
 30
0.0
 11
231744.27077417189
 21
33967.650808941638
 31
0.0
  0
LINE
  5
4A0E8
  8
D-STR_構造物外形線_
  6
CONTINUOUS
 62
     1
 10
231744.27077417189
 20
33967.650808941638
 30
0.0
 11
233609.27077417201
 21
33967.650808941638
 31
0.0
  0
LINE
  5
4A0E9
  8
D-STR_構造物外形線_
  6
CONTINUOUS
 62
     1
 10
233609.27077417201
 20
33967.650808941638
 30
0.0
 11
233634.27077417189
 21
34217.650808941653
 31
0.0
  0
LINE
  5
4A0EA
  8
D-STR_構造物外形線_
  6
CONTINUOUS
 62
     1
 10
231944.27077417189
 20
33692.650808941653
 30
0.0
 11
233044.27077417201
 21
33692.650808941653
 31
0.0
  0
LINE
  5
4A0EB
  8
D-STR_構造物外形線_
  6
CONTINUOUS
 62
     1
 10
233044.27077417201
 20
33692.650808941653
 30
0.0
 11
233609.27077417201
 21
33967.650808941638
 31
0.0
  0
LINE
  5
4A0EC
  8
D-STR_構造物外形線_
  6
CONTINUOUS
 62
     1
 10
231744.27077417189
 20
33967.650808941638
 30
0.0
 11
231944.27077417189
 21
33692.650808941653
 31
0.0
  0
LINE
  5
4A0ED
  8
D-STR_構造物外形線_
  6
CONTINUOUS
 62
     1
 10
232094.27077417189
 20
32567.650808941649
 30
0.0
 11
232769.27077417189
 21
32567.650808941649
 31
0.0
  0
LINE
  5
4A0EE
  8
D-STR_構造物外形線_
  6
CONTINUOUS
 62
     1
 10
231944.27077417189
 20
33692.650808941653
 30
0.0
 11
232094.27077417189
 21
32567.650808941649
 31
0.0
  0
LINE
  5
4A0EF
  8
D-STR_構造物外形線_
  6
CONTINUOUS
 62
     1
 10
233044.27077417201
 20
33692.650808941653
 30
0.0
 11
232769.27077417189
 21
32567.650808941649
 31
0.0
  0
LINE
  5
4A0F0
  8
D-STR_構造物外形線_
  6
CONTINUOUS
 62
     1
 10
236246.38547016529
 20
39380.946864164041
 30
0.0
 11
236246.38547016529
 21
37465.946864164063
 31
0.0
  0
LINE
  5
4A0F1
  8
D-STR_構造物外形線_
  6
CONTINUOUS
 62
     1
 10
236246.38547016529
 20
39380.946864164041
 30
0.0
 11
236146.38547016529
 21
39305.946864164041
 31
0.0
  0
LINE
  5
4A0F2
  8
D-STR_構造物外形線_
  6
CONTINUOUS
 62
     1
 10
236146.38547016529
 20
39305.946864164041
 30
0.0
 11
236146.38547016529
 21
37540.946864164071
 31
0.0
  0
LINE
  5
4A0F3
  8
D-STR_構造物外形線_
  6
CONTINUOUS
 62
     1
 10
236146.38547016529
 20
37540.946864164071
 30
0.0
 11
236246.38547016529
 21
37465.946864164063
 31
0.0
  0
LINE
  5
4A0F4
  8
D-STR_構造物外形線_
  6
CONTINUOUS
 62
     1
 10
236246.38547016529
 20
39380.946864164041
 30
0.0
 11
236496.38547016529
 21
39355.946864164041
 31
0.0
  0
LINE
  5
4A0F5
  8
D-STR_構造物外形線_
  6
CONTINUOUS
 62
     1
 10
236496.38547016529
 20
39355.946864164041
 30
0.0
 11
236496.38547016529
 21
37490.946864164063
 31
0.0
  0
LINE
  5
4A0F6
  8
D-STR_構造物外形線_
  6
CONTINUOUS
 62
     1
 10
236496.38547016529
 20
37490.946864164063
 30
0.0
 11
236246.38547016529
 21
37465.946864164063
 31
0.0
  0
LINE
  5
4A0F7
  8
D-STR_構造物外形線_
  6
CONTINUOUS
 62
     1
 10
236496.38547016529
 20
39355.946864164041
 30
0.0
 11
236771.38547016529
 21
39048.446864164041
 31
0.0
  0
LINE
  5
4A0F8
  8
D-STR_構造物外形線_
  6
CONTINUOUS
 62
     1
 10
236496.38547016529
 20
37490.946864164063
 30
0.0
 11
236771.38547016529
 21
37798.446864164071
 31
0.0
  0
LINE
  5
4A0F9
  8
D-STR_構造物外形線_
  6
CONTINUOUS
 62
     1
 10
237896.38547016541
 20
38798.446864164041
 30
0.0
 11
237896.38547016541
 21
38048.446864164041
 31
0.0
  0
LINE
  5
4A0FA
  8
D-STR_構造物外形線_
  6
CONTINUOUS
 62
     1
 10
237896.38547016541
 20
38798.446864164041
 30
0.0
 11
237346.38547016529
 21
38920.66908638629
 31
0.0
  0
LINE
  5
4A0FB
  8
D-STR_構造物外形線_
  6
CONTINUOUS
 62
     1
 10
237346.38547016529
 20
37926.224641941822
 30
0.0
 11
237896.38547016541
 21
38048.446864164041
 31
0.0
  0
ARC
  5
4A0FC
  8
D-STR_構造物外形線_
  6
CONTINUOUS
 62
     1
 10
237117.60192136289
 20
39248.782005664711
 30
0.0
 40
400.0
 50
210.05544745721059
 51
304.88693712574138
  0
ARC
  5
4A0FD
  8
D-STR_構造物外形線_
  6
CONTINUOUS
 62
     1
 10
237117.60192136301
 20
37598.111722663423
 30
0.0
 40
400.0
 50
55.113062874258603
 51
149.94455254278941
  0
LINE
  5
4A104
  8
D-TTL-TXT_文字_
  6
CONTINUOUS
 62
     7
 10
231719.27077417189
 20
29290.463584926991
 30
0.0
 11
236759.09975246279
 21
29290.463584926991
 31
0.0
  0
LINE
  5
4A105
  8
D-TTL-TXT_文字_
  6
CONTINUOUS
 62
     7
 10
253885.89213814811
 20
29290.463584926991
 30
0.0
 11
258925.72111643889
 21
29290.463584926991
 31
0.0
  0
LINE
  5
4A106
  8
D-TTL-TXT_文字_
  6
CONTINUOUS
 62
     7
 10
231719.27077417189
 20
41197.835738837202
 30
0.0
 11
236759.09975246279
 21
41197.835738837202
 31
0.0
  0
TEXT
  5
4A107
  8
D-TTL-TXT_文字_
  6
CONTINUOUS
 62
     7
 10
231769.27077417189
 20
41247.835738837202
 30
0.0
 40
500.0
  1
隅石　大型　100
  7
ＭＳ_ゴシック
1001
WACOM_STRING
1002
{
1070
   301
1002
}
1001
ACAD
1000
MTEXTBEGIN
1070
    73
1070
     1
1070
    44
1040
1.0
1070
    74
1070
     0
1000
MTEXTEND
1000
MTEXTBEGIN
1070
    73
1070
     1
1070
    44
1040
1.0
1070
    74
1070
     0
1000
MTEXTEND
  0
LINE
  5
4A108
  8
D-TTL-TXT_文字_
  6
CONTINUOUS
 62
     7
 10
253885.89213814811
 20
41197.835738837202
 30
0.0
 11
258925.72111643889
 21
41197.835738837202
 31
0.0
  0
TEXT
  5
4A109
  8
D-TTL-TXT_文字_
  6
CONTINUOUS
 62
     7
 10
253935.89213814811
 20
41247.835738837202
 30
0.0
 40
500.0
  1
隅石　大型　150
  7
ＭＳ_ゴシック
1001
WACOM_STRING
1002
{
1070
   301
1002
}
1001
ACAD
1000
MTEXTBEGIN
1070
    73
1070
     1
1070
    44
1040
1.0
1070
    74
1070
     0
1000
MTEXTEND
1000
MTEXTBEGIN
1070
    73
1070
     1
1070
    44
1040
1.0
1070
    74
1070
     0
1000
MTEXTEND
  0
TEXT
  5
4A10A
  8
D-TTL-TXT_文字_
  6
CONTINUOUS
 62
     7
 10
231769.27077417189
 20
29340.463584926991
 30
0.0
 40
500.0
  1
隅石　小型　100
  7
ＭＳ_ゴシック
1001
WACOM_STRING
1002
{
1070
   301
1002
}
1001
ACAD
1000
MTEXTBEGIN
1070
    73
1070
     1
1070
    44
1040
1.0
1070
    74
1070
     0
1000
MTEXTEND
1000
MTEXTBEGIN
1070
    73
1070
     1
1070
    44
1040
1.0
1070
    74
1070
     0
1000
MTEXTEND
  0
TEXT
  5
4A10B
  8
D-TTL-TXT_文字_
  6
CONTINUOUS
 62
     7
 10
253935.89213814811
 20
29340.463584926991
 30
0.0
 40
500.0
  1
隅石　小型　150
  7
ＭＳ_ゴシック
1001
WACOM_STRING
1002
{
1070
   301
1002
}
1001
ACAD
1000
MTEXTBEGIN
1070
    73
1070
     1
1070
    44
1040
1.0
1070
    74
1070
     0
1000
MTEXTEND
1000
MTEXTBEGIN
1070
    73
1070
     1
1070
    44
1040
1.0
1070
    74
1070
     0
1000
MTEXTEND
  0
LINE
  5
4A10C
  8
D-STR_構造物外形線_
  6
CONTINUOUS
 62
     1
 10
231719.27077417189
 20
26003.907431152202
 30
0.0
 11
233279.2707741718
 21
26003.907431152202
 31
0.0
  0
LINE
  5
4A10D
  8
D-STR_構造物外形線_
  6
CONTINUOUS
 62
     1
 10
233279.2707741718
 20
26003.907431152202
 30
0.0
 11
233279.2707741718
 21
27563.907431152202
 31
0.0
  0
LINE
  5
4A10E
  8
D-STR_構造物外形線_
  6
CONTINUOUS
 62
     1
 10
231719.27077417189
 20
26003.907431152202
 30
0.0
 11
231719.27077417189
 21
26503.907431152202
 31
0.0
  0
LINE
  5
4A10F
  8
D-STR_構造物外形線_
  6
CONTINUOUS
 62
     1
 10
231719.27077417189
 20
26503.907431152202
 30
0.0
 11
232779.27077417189
 21
27563.907431152202
 31
0.0
  0
LINE
  5
4A110
  8
D-STR_構造物外形線_
  6
CONTINUOUS
 62
     1
 10
232779.27077417189
 20
27563.907431152202
 30
0.0
 11
233279.2707741718
 21
27563.907431152202
 31
0.0
  0
LINE
  5
4A111
  8
D-STR_構造物外形線_
  6
CONTINUOUS
 62
     1
 10
231719.27077417189
 20
23059.005997380871
 30
0.0
 11
233279.2707741718
 21
23059.005997380871
 31
0.0
  0
LINE
  5
4A112
  8
D-STR_構造物外形線_
  6
CONTINUOUS
 62
     1
 10
236246.3854701652
 20
27563.907431152202
 30
0.0
 11
236246.3854701652
 21
26003.907431152202
 31
0.0
  0
LINE
  5
4A113
  8
D-STR_構造物外形線_
  6
CONTINUOUS
 62
     1
 10
236246.3854701652
 20
27563.907431152202
 30
0.0
 11
236146.38547016529
 21
27488.907431152202
 31
0.0
  0
LINE
  5
4A114
  8
D-STR_構造物外形線_
  6
CONTINUOUS
 62
     1
 10
236146.38547016529
 20
27488.907431152202
 30
0.0
 11
236146.38547016529
 21
26078.907431152202
 31
0.0
  0
LINE
  5
4A115
  8
D-STR_構造物外形線_
  6
CONTINUOUS
 62
     1
 10
236146.38547016529
 20
26078.907431152202
 30
0.0
 11
236246.3854701652
 21
26003.907431152202
 31
0.0
  0
LINE
  5
4A116
  8
D-STR_構造物外形線_
  6
CONTINUOUS
 62
     1
 10
231719.27077417189
 20
23059.005997380871
 30
0.0
 11
231794.27077417189
 21
23159.005997380871
 31
0.0
  0
LINE
  5
4A117
  8
D-STR_構造物外形線_
  6
CONTINUOUS
 62
     1
 10
231794.27077417189
 20
23159.005997380871
 30
0.0
 11
233204.2707741718
 21
23159.005997380871
 31
0.0
  0
LINE
  5
4A118
  8
D-STR_構造物外形線_
  6
CONTINUOUS
 62
     1
 10
233204.2707741718
 20
23159.005997380871
 30
0.0
 11
233279.2707741718
 21
23059.005997380871
 31
0.0
  0
LINE
  5
4A119
  8
D-STR_構造物外形線_
  6
CONTINUOUS
 62
     1
 10
231719.27077417189
 20
23059.005997380871
 30
0.0
 11
231744.27077417189
 21
22809.005997380871
 31
0.0
  0
LINE
  5
4A11A
  8
D-STR_構造物外形線_
  6
CONTINUOUS
 62
     1
 10
231744.27077417189
 20
22809.005997380871
 30
0.0
 11
233254.27077417189
 21
22809.005997380871
 31
0.0
  0
LINE
  5
4A11B
  8
D-STR_構造物外形線_
  6
CONTINUOUS
 62
     1
 10
233254.27077417189
 20
22809.005997380871
 30
0.0
 11
233279.2707741718
 21
23059.005997380871
 31
0.0
  0
LINE
  5
4A11C
  8
D-STR_構造物外形線_
  6
CONTINUOUS
 62
     1
 10
232004.27077417189
 20
22534.005997380871
 30
0.0
 11
233154.27077417201
 21
22534.005997380871
 31
0.0
  0
LINE
  5
4A11D
  8
D-STR_構造物外形線_
  6
CONTINUOUS
 62
     1
 10
233154.27077417201
 20
22534.005997380871
 30
0.0
 11
233254.27077417189
 21
22809.005997380871
 31
0.0
  0
LINE
  5
4A11E
  8
D-STR_構造物外形線_
  6
CONTINUOUS
 62
     1
 10
231744.27077417189
 20
22809.005997380871
 30
0.0
 11
232004.27077417189
 21
22534.005997380871
 31
0.0
  0
LINE
  5
4A11F
  8
D-STR_構造物外形線_
  6
CONTINUOUS
 62
     1
 10
232004.27077417189
 20
22534.005997380871
 30
0.0
 11
232304.27077417189
 21
21409.005997380871
 31
0.0
  0
LINE
  5
4A120
  8
D-STR_構造物外形線_
  6
CONTINUOUS
 62
     1
 10
232304.27077417189
 20
21409.005997380871
 30
0.0
 11
232979.27077417189
 21
21409.005997380871
 31
0.0
  0
LINE
  5
4A121
  8
D-STR_構造物外形線_
  6
CONTINUOUS
 62
     1
 10
232979.27077417189
 20
21409.005997380871
 30
0.0
 11
233154.27077417201
 21
22534.005997380871
 31
0.0
  0
LINE
  5
4A122
  8
D-STR_構造物外形線_
  6
CONTINUOUS
 62
     1
 10
236246.3854701652
 20
27563.907431152202
 30
0.0
 11
236496.3854701652
 21
27538.907431152202
 31
0.0
  0
LINE
  5
4A123
  8
D-STR_構造物外形線_
  6
CONTINUOUS
 62
     1
 10
236496.3854701652
 20
27538.907431152202
 30
0.0
 11
236496.3854701652
 21
26028.907431152202
 31
0.0
  0
LINE
  5
4A124
  8
D-STR_構造物外形線_
  6
CONTINUOUS
 62
     1
 10
236496.3854701652
 20
26028.907431152202
 30
0.0
 11
236246.3854701652
 21
26003.907431152202
 31
0.0
  0
LINE
  5
4A125
  8
D-STR_構造物外形線_
  6
CONTINUOUS
 62
     1
 10
236771.38547016529
 20
27408.907431152202
 30
0.0
 11
236771.38547016529
 21
26158.907431152202
 31
0.0
  0
LINE
  5
4A126
  8
D-STR_構造物外形線_
  6
CONTINUOUS
 62
     1
 10
236771.38547016529
 20
27408.907431152202
 30
0.0
 11
236496.3854701652
 21
27538.907431152202
 31
0.0
  0
LINE
  5
4A127
  8
D-STR_構造物外形線_
  6
CONTINUOUS
 62
     1
 10
236771.38547016529
 20
26158.907431152202
 30
0.0
 11
236496.3854701652
 21
26028.907431152202
 31
0.0
  0
LINE
  5
4A128
  8
D-STR_構造物外形線_
  6
CONTINUOUS
 62
     1
 10
237896.3854701652
 20
27158.907431152202
 30
0.0
 11
237896.3854701652
 21
26408.907431152202
 31
0.0
  0
LINE
  5
4A129
  8
D-STR_構造物外形線_
  6
CONTINUOUS
 62
     1
 10
237896.3854701652
 20
26408.907431152202
 30
0.0
 11
237346.3854701652
 21
26286.685208929979
 31
0.0
  0
LINE
  5
4A12A
  8
D-STR_構造物外形線_
  6
CONTINUOUS
 62
     1
 10
237346.3854701652
 20
27281.129653374421
 30
0.0
 11
237896.3854701652
 21
27158.907431152202
 31
0.0
  0
ARC
  5
4A12B
  8
D-STR_構造物外形線_
  6
CONTINUOUS
 62
     1
 10
237117.60192136289
 20
27609.242572652849
 30
0.0
 40
400.0
 50
210.05544745721059
 51
304.88693712574138
  0
ARC
  5
4A12C
  8
D-STR_構造物外形線_
  6
CONTINUOUS
 62
     1
 10
237117.60192136289
 20
25958.57228965154
 30
0.0
 40
400.0
 50
55.113062874258603
 51
149.94455254278941
  0
LINE
  5
4A12D
  8
D-STR_構造物外形線_
  6
CONTINUOUS
 62
     1
 10
253885.89213814811
 20
25753.907431152202
 30
0.0
 11
255445.89213814799
 21
25753.907431152202
 31
0.0
  0
LINE
  5
4A12E
  8
D-STR_構造物外形線_
  6
CONTINUOUS
 62
     1
 10
255445.89213814799
 20
25753.907431152202
 30
0.0
 11
255445.89213814799
 21
27563.90743115218
 31
0.0
  0
LINE
  5
4A12F
  8
D-STR_構造物外形線_
  6
CONTINUOUS
 62
     1
 10
253885.89213814811
 20
25753.907431152202
 30
0.0
 11
253885.89213814811
 21
26503.907431152202
 31
0.0
  0
LINE
  5
4A130
  8
D-STR_構造物外形線_
  6
CONTINUOUS
 62
     1
 10
253885.89213814811
 20
26503.907431152202
 30
0.0
 11
254945.89213814799
 21
27563.907431152202
 31
0.0
  0
LINE
  5
4A131
  8
D-STR_構造物外形線_
  6
CONTINUOUS
 62
     1
 10
254945.89213814799
 20
27563.907431152202
 30
0.0
 11
255445.89213814799
 21
27563.907431152202
 31
0.0
  0
LINE
  5
4A132
  8
D-STR_構造物外形線_
  6
CONTINUOUS
 62
     1
 10
253885.89213814811
 20
23059.005997380769
 30
0.0
 11
255445.89213814799
 21
23059.005997380769
 31
0.0
  0
LINE
  5
4A133
  8
D-STR_構造物外形線_
  6
CONTINUOUS
 62
     1
 10
259628.67326080939
 20
27563.907431152162
 30
0.0
 11
259628.67326080939
 21
25753.907431152202
 31
0.0
  0
LINE
  5
4A134
  8
D-STR_構造物外形線_
  6
CONTINUOUS
 62
     1
 10
259628.67326080939
 20
27563.907431152202
 30
0.0
 11
259528.6732608093
 21
27488.907431152202
 31
0.0
  0
LINE
  5
4A135
  8
D-STR_構造物外形線_
  6
CONTINUOUS
 62
     1
 10
259528.67326080939
 20
27488.907431152202
 30
0.0
 11
259528.6732608093
 21
25828.907431152202
 31
0.0
  0
LINE
  5
4A136
  8
D-STR_構造物外形線_
  6
CONTINUOUS
 62
     1
 10
259528.6732608093
 20
25828.907431152202
 30
0.0
 11
259628.67326080939
 21
25753.907431152202
 31
0.0
  0
LINE
  5
4A137
  8
D-STR_構造物外形線_
  6
CONTINUOUS
 62
     1
 10
253885.89213814811
 20
23059.005997380769
 30
0.0
 11
253960.89213814811
 21
23159.005997380769
 31
0.0
  0
LINE
  5
4A138
  8
D-STR_構造物外形線_
  6
CONTINUOUS
 62
     1
 10
253960.89213814811
 20
23159.005997380769
 30
0.0
 11
255370.89213814799
 21
23159.005997380769
 31
0.0
  0
LINE
  5
4A139
  8
D-STR_構造物外形線_
  6
CONTINUOUS
 62
     1
 10
255370.89213814799
 20
23159.005997380769
 30
0.0
 11
255445.89213814799
 21
23059.005997380769
 31
0.0
  0
LINE
  5
4A13A
  8
D-STR_構造物外形線_
  6
CONTINUOUS
 62
     1
 10
253885.89213814811
 20
23059.005997380769
 30
0.0
 11
253910.89213814799
 21
22809.005997380758
 31
0.0
  0
LINE
  5
4A13B
  8
D-STR_構造物外形線_
  6
CONTINUOUS
 62
     1
 10
253910.89213814799
 20
22809.005997380758
 30
0.0
 11
255420.89213814799
 21
22809.005997380758
 31
0.0
  0
LINE
  5
4A13C
  8
D-STR_構造物外形線_
  6
CONTINUOUS
 62
     1
 10
255420.89213814799
 20
22809.005997380758
 30
0.0
 11
255445.89213814799
 21
23059.005997380769
 31
0.0
  0
LINE
  5
4A13D
  8
D-STR_構造物外形線_
  6
CONTINUOUS
 62
     1
 10
254170.89213814799
 20
22534.005997380769
 30
0.0
 11
255320.89213814811
 21
22534.005997380769
 31
0.0
  0
LINE
  5
4A13E
  8
D-STR_構造物外形線_
  6
CONTINUOUS
 62
     1
 10
255320.89213814811
 20
22534.005997380769
 30
0.0
 11
255420.89213814799
 21
22809.005997380758
 31
0.0
  0
LINE
  5
4A13F
  8
D-STR_構造物外形線_
  6
CONTINUOUS
 62
     1
 10
253910.89213814799
 20
22809.005997380758
 30
0.0
 11
254170.89213814799
 21
22534.005997380769
 31
0.0
  0
LINE
  5
4A140
  8
D-STR_構造物外形線_
  6
CONTINUOUS
 62
     1
 10
254170.89213814799
 20
22534.005997380769
 30
0.0
 11
254470.89213814799
 21
21409.005997380769
 31
0.0
  0
LINE
  5
4A141
  8
D-STR_構造物外形線_
  6
CONTINUOUS
 62
     1
 10
254470.89213814799
 20
21409.005997380769
 30
0.0
 11
255145.89213814799
 21
21409.005997380769
 31
0.0
  0
LINE
  5
4A142
  8
D-STR_構造物外形線_
  6
CONTINUOUS
 62
     1
 10
255145.89213814799
 20
21409.005997380769
 30
0.0
 11
255320.89213814811
 21
22534.005997380769
 31
0.0
  0
LINE
  5
4A143
  8
D-STR_構造物外形線_
  6
CONTINUOUS
 62
     1
 10
259628.67326080939
 20
27563.907431152202
 30
0.0
 11
259878.67326080939
 21
27538.907431152202
 31
0.0
  0
LINE
  5
4A144
  8
D-STR_構造物外形線_
  6
CONTINUOUS
 62
     1
 10
259878.67326080939
 20
27538.907431152202
 30
0.0
 11
259878.67326080939
 21
25778.907431152202
 31
0.0
  0
LINE
  5
4A145
  8
D-STR_構造物外形線_
  6
CONTINUOUS
 62
     1
 10
259878.67326080939
 20
25778.907431152202
 30
0.0
 11
259628.67326080939
 21
25753.907431152202
 31
0.0
  0
LINE
  5
4A146
  8
D-STR_構造物外形線_
  6
CONTINUOUS
 62
     1
 10
260153.67326080939
 20
27283.907431152202
 30
0.0
 11
260153.67326080939
 21
26033.907431152202
 31
0.0
  0
LINE
  5
4A147
  8
D-STR_構造物外形線_
  6
CONTINUOUS
 62
     1
 10
260153.67326080939
 20
27283.907431152202
 30
0.0
 11
259878.67326080939
 21
27538.907431152202
 31
0.0
  0
LINE
  5
4A148
  8
D-STR_構造物外形線_
  6
CONTINUOUS
 62
     1
 10
260153.67326080939
 20
26033.907431152202
 30
0.0
 11
259878.67326080939
 21
25778.907431152202
 31
0.0
  0
LINE
  5
4A149
  8
D-STR_構造物外形線_
  6
CONTINUOUS
 62
     1
 10
261278.67326080939
 20
27033.907431152202
 30
0.0
 11
261278.67326080939
 21
26283.907431152202
 31
0.0
  0
LINE
  5
4A14A
  8
D-STR_構造物外形線_
  6
CONTINUOUS
 62
     1
 10
261278.67326080939
 20
26283.907431152202
 30
0.0
 11
260728.6732608093
 21
26161.68520892999
 31
0.0
  0
LINE
  5
4A14B
  8
D-STR_構造物外形線_
  6
CONTINUOUS
 62
     1
 10
260728.6732608093
 20
27156.129653374432
 30
0.0
 11
261278.67326080939
 21
27033.907431152202
 31
0.0
  0
ARC
  5
4A14C
  8
D-STR_構造物外形線_
  6
CONTINUOUS
 62
     1
 10
260499.88971200711
 20
27484.242572652882
 30
0.0
 40
400.0
 50
210.05544745721059
 51
304.88693712574138
  0
ARC
  5
4A14D
  8
D-STR_構造物外形線_
  6
CONTINUOUS
 62
     1
 10
260499.88971200711
 20
25833.572289651511
 30
0.0
 40
400.0
 50
55.113062874258603
 51
149.94455254278941
  0
LINE
  5
4A14E
  8
D-TTL-TXT_文字_
  6
CONTINUOUS
 62
     7
 10
244619.86612246381
 20
66454.137180773381
 30
0.0
 11
246712.36015902329
 21
66454.137180773352
 31
0.0
  0
TEXT
  5
4A14F
  8
D-TTL-TXT_文字_
  6
CONTINUOUS
 62
     7
 10
244669.86612246389
 20
66504.137180773381
 30
0.0
 40
500.0
  1
半切型
  7
ＭＳ_ゴシック
1001
WACOM_STRING
1002
{
1070
   301
1002
}
1001
ACAD
1000
MTEXTBEGIN
1070
    73
1070
     1
1070
    44
1040
1.0
1070
    74
1070
     0
1000
MTEXTEND
1000
MTEXTBEGIN
1070
    73
1070
     1
1070
    44
1040
1.0
1070
    74
1070
     0
1000
MTEXTEND
  0
LINE
  5
4A150
  8
D-STR_構造物外形線_
  6
CONTINUOUS
 62
     1
 10
244669.86612246389
 20
65454.137180773352
 30
0.0
 11
243669.86612246389
 21
65454.137180773381
 31
0.0
  0
LINE
  5
4A151
  8
D-STR_構造物外形線_
  6
CONTINUOUS
 62
     1
 10
243669.86612246389
 20
65454.137180773381
 30
0.0
 11
243669.86612246389
 21
63954.137180773352
 31
0.0
  0
LINE
  5
4A152
  8
D-STR_構造物外形線_
  6
CONTINUOUS
 62
     1
 10
243669.86612246389
 20
63954.137180773352
 30
0.0
 11
244669.86612246389
 21
63954.137180773352
 31
0.0
  0
LINE
  5
4A153
  8
D-STR_構造物外形線_
  6
CONTINUOUS
 62
     1
 10
244669.86612246389
 20
63954.137180773352
 30
0.0
 11
244669.86612246389
 21
65454.137180773352
 31
0.0
  0
LINE
  5
4A154
  8
D-STR_構造物外形線_
  6
CONTINUOUS
 62
     1
 10
243669.86612246389
 20
60217.650808941638
 30
0.0
 11
244669.86612246389
 21
60217.650808941638
 31
0.0
  0
LINE
  5
4A155
  8
D-STR_構造物外形線_
  6
CONTINUOUS
 62
     1
 10
246735.9082875069
 20
65454.137180773352
 30
0.0
 11
246735.9082875069
 21
63954.137180773352
 31
0.0
  0
LINE
  5
4A156
  8
D-STR_構造物外形線_
  6
CONTINUOUS
 62
     1
 10
246735.9082875069
 20
65454.137180773352
 30
0.0
 11
246635.9082875069
 21
65379.137180773352
 31
0.0
  0
LINE
  5
4A157
  8
D-STR_構造物外形線_
  6
CONTINUOUS
 62
     1
 10
246635.9082875069
 20
65379.137180773352
 30
0.0
 11
246635.9082875069
 21
64029.137180773352
 31
0.0
  0
LINE
  5
4A158
  8
D-STR_構造物外形線_
  6
CONTINUOUS
 62
     1
 10
246635.9082875069
 20
64029.137180773352
 30
0.0
 11
246735.9082875069
 21
63954.137180773352
 31
0.0
  0
LINE
  5
4A159
  8
D-STR_構造物外形線_
  6
CONTINUOUS
 62
     1
 10
243669.86612246389
 20
60217.650808941638
 30
0.0
 11
243744.86612246389
 21
60317.650808941653
 31
0.0
  0
LINE
  5
4A15A
  8
D-STR_構造物外形線_
  6
CONTINUOUS
 62
     1
 10
243744.86612246389
 20
60317.650808941653
 30
0.0
 11
244594.86612246389
 21
60317.650808941653
 31
0.0
  0
LINE
  5
4A15B
  8
D-STR_構造物外形線_
  6
CONTINUOUS
 62
     1
 10
244594.86612246389
 20
60317.650808941653
 30
0.0
 11
244669.86612246389
 21
60217.650808941638
 31
0.0
  0
LINE
  5
4A15C
  8
D-STR_構造物外形線_
  6
CONTINUOUS
 62
     1
 10
246735.9082875069
 20
65454.137180773352
 30
0.0
 11
246985.9082875069
 21
65429.137180773352
 31
0.0
  0
LINE
  5
4A15D
  8
D-STR_構造物外形線_
  6
CONTINUOUS
 62
     1
 10
246985.9082875069
 20
65429.137180773352
 30
0.0
 11
246985.9082875069
 21
63979.137180773352
 31
0.0
  0
LINE
  5
4A15E
  8
D-STR_構造物外形線_
  6
CONTINUOUS
 62
     1
 10
246985.9082875069
 20
63979.137180773352
 30
0.0
 11
246735.9082875069
 21
63954.137180773352
 31
0.0
  0
LINE
  5
4A15F
  8
D-STR_構造物外形線_
  6
CONTINUOUS
 62
     1
 10
248385.9082875069
 20
65079.137180773352
 30
0.0
 11
248385.9082875069
 21
64329.137180773352
 31
0.0
  0
LINE
  5
4A160
  8
D-STR_構造物外形線_
  6
CONTINUOUS
 62
     1
 10
248385.9082875069
 20
64329.137180773352
 30
0.0
 11
246985.9082875069
 21
63979.137180773352
 31
0.0
  0
LINE
  5
4A161
  8
D-STR_構造物外形線_
  6
CONTINUOUS
 62
     1
 10
246985.9082875069
 20
65429.137180773352
 30
0.0
 11
248385.9082875069
 21
65079.137180773352
 31
0.0
  0
LINE
  5
4A162
  8
D-STR_構造物外形線_
  6
CONTINUOUS
 62
     1
 10
247860.9082875069
 20
65210.387180773352
 30
0.0
 11
247860.9082875069
 21
64197.887180773352
 31
0.0
  0
LINE
  5
4A163
  8
D-STR_構造物外形線_
  6
CONTINUOUS
 62
     1
 10
247260.9082875069
 20
65360.387180773352
 30
0.0
 11
247260.9082875069
 21
64047.887180773352
 31
0.0
  0
LINE
  5
4A164
  8
D-STR_構造物外形線_
  6
CONTINUOUS
 62
     1
 10
243669.86612246389
 20
60217.650808941638
 30
0.0
 11
243694.86612246389
 21
59967.650808941653
 31
0.0
  0
LINE
  5
4A165
  8
D-STR_構造物外形線_
  6
CONTINUOUS
 62
     1
 10
243694.86612246389
 20
59967.650808941653
 30
0.0
 11
244644.86612246389
 21
59967.650808941653
 31
0.0
  0
LINE
  5
4A166
  8
D-STR_構造物外形線_
  6
CONTINUOUS
 62
     1
 10
244644.86612246389
 20
59967.650808941653
 30
0.0
 11
244669.86612246389
 21
60217.650808941638
 31
0.0
  0
LINE
  5
4A167
  8
D-STR_構造物外形線_
  6
CONTINUOUS
 62
     1
 10
243919.86612246389
 20
58567.650808941638
 30
0.0
 11
244419.86612246389
 21
58567.650808941638
 31
0.0
  0
LINE
  5
4A168
  8
D-STR_構造物外形線_
  6
CONTINUOUS
 62
     1
 10
244419.86612246389
 20
58567.650808941638
 30
0.0
 11
244504.24112246381
 21
59092.650808941682
 31
0.0
  0
LINE
  5
4A169
  8
D-STR_構造物外形線_
  6
CONTINUOUS
 62
     1
 10
243694.86612246389
 20
59967.650808941653
 30
0.0
 11
243739.06255103531
 21
59692.650808941609
 31
0.0
  0
ARC
  5
4A16A
  8
D-STR_構造物外形線_
  6
CONTINUOUS
 62
     1
 10
244809.30439479719
 20
59351.371507520707
 30
0.0
 40
400.0
 50
121.4387480084288
 51
220.30089902660629
  0
ARC
  5
4A16B
  8
D-STR_構造物外形線_
  6
CONTINUOUS
 62
     1
 10
243530.42785013051
 20
59351.371507520707
 30
0.0
 40
400.0
 50
319.69910097339368
 51
58.561251991571233
  0
LINE
  5
4A16C
  8
D-STR_構造物外形線_
  6
CONTINUOUS
 62
     1
 10
244600.66969389241
 20
59692.650808941609
 30
0.0
 11
244644.86612246389
 21
59967.650808941653
 31
0.0
  0
LINE
  5
4A16D
  8
D-STR_構造物外形線_
  6
CONTINUOUS
 62
     1
 10
243835.49112246389
 20
59092.650808941617
 30
0.0
 11
243919.86612246389
 21
58567.650808941638
 31
0.0
  0
TEXT
  5
4A16E
  8
D-TTL-TXT_文字_
 62
     7
 10
295061.19446774223
 20
17559.212720298081
 30
0.0
 40
500.0
  1
1:20
  7
ＭＳ_ゴシック
 11
295061.19446774223
 21
17467.842161922439
 31
0.0
 73
     1
  0
TEXT
  5
4A16F
  8
D-TTL-TXT_文字_
 62
     7
 10
295061.19446774223
 20
19387.842161922439
 30
0.0
 40
500.0
  1
積みブロック
  7
ＭＳ_ゴシック
  0
LINE
  5
4A170
  8
D-TTL_外枠_
 10
291748.10427396488
 20
20216.487690367689
 30
0.0
 11
301468.10427396488
 21
20216.487690367689
 31
0.0
  0
LINE
  5
4A171
  8
D-TTL_外枠_
 10
291748.10427396488
 20
19256.487690367689
 30
0.0
 11
301468.10427396488
 21
19256.487690367689
 31
0.0
  0
LINE
  5
4A172
  8
D-TTL_外枠_
 10
291748.10427396488
 20
18296.487690367689
 30
0.0
 11
301468.10427396488
 21
18296.487690367689
 31
0.0
  0
LINE
  5
4A173
  8
D-TTL_外枠_
 10
291748.10427396488
 20
17336.487690367689
 30
0.0
 11
301468.10427396488
 21
17336.487690367689
 31
0.0
  0
TEXT
  5
4A174
  8
D-TTL-TXT_文字_
 62
     7
 10
291941.19446774223
 20
16507.842161922439
 30
0.0
 40
500.0
  1
三和コンクリート工業株式会社
  7
ＭＳ_ゴシック
  0
TEXT
  5
4A175
  8
D-TTL-TXT_文字_
 62
     7
 10
291941.19446774223
 20
19387.842161922439
 30
0.0
 40
500.0
  1
名　称
  7
ＭＳ_ゴシック
  0
TEXT
  5
4A176
  8
D-TTL-TXT_文字_
 62
     7
 10
291941.19446774223
 20
17467.842161922439
 30
0.0
 40
500.0
  1
縮　尺
  7
ＭＳ_ゴシック
  0
TEXT
  5
4A177
  8
D-TTL-TXT_文字_
 62
     7
 10
291941.19446774223
 20
18427.84216192241
 30
0.0
 40
500.0
  1
呼び寸法
  7
ＭＳ_ゴシック
  0
LINE
  5
4A178
  8
D-TTL_外枠_
 10
291748.10427396488
 20
20216.487690367689
 30
0.0
 11
291748.10427396488
 21
16376.48769036769
 31
0.0
  0
LINE
  5
4A179
  8
D-TTL_外枠_
 10
294868.10427396488
 20
20216.487690367689
 30
0.0
 11
294868.10427396488
 21
17336.487690367689
 31
0.0
  0
LINE
  5
4A17A
  8
D-TTL_外枠_
  6
CONTINUOUS
 10
221968.10431528499
 20
71776.487690367678
 30
0.0
 11
301468.10431528499
 21
71776.487690367678
 31
0.0
  0
LINE
  5
4A17B
  8
DEFPOINTS
 10
219668.10431528499
 20
73776.487690367678
 30
0.0
 11
303768.10431528487
 21
73776.487690367678
 31
0.0
  0
LINE
  5
4A17C
  8
D-TTL_外枠_
 10
301468.10431528499
 20
16376.48769036769
 30
0.0
 11
221968.10431528499
 21
16376.48769036769
 31
0.0
  0
LINE
  5
4A17D
  8
D-TTL_外枠_
 10
221968.10431528499
 20
16376.48769036769
 30
0.0
 11
221968.10431528499
 21
71776.487690367678
 31
0.0
  0
LINE
  5
4A17E
  8
DEFPOINTS
 10
219668.10431528499
 20
14376.48769036769
 30
0.0
 11
219668.10431528499
 21
73776.487690367678
 31
0.0
  0
LINE
  5
4A17F
  8
D-TTL_外枠_
 10
301468.10431528499
 20
71776.487690367678
 30
0.0
 11
301468.10431528499
 21
16376.48769036769
 31
0.0
  0
LINE
  5
4A180
  8
DEFPOINTS
 10
219668.10431528499
 20
14376.48769036769
 30
0.0
 11
303768.10431528487
 21
14376.48769036769
 31
0.0
  0
LINE
  5
4A181
  8
DEFPOINTS
 10
303768.10431528487
 20
14376.48769036769
 30
0.0
 11
303768.10431528487
 21
73776.487690367678
 31
0.0
  0
TEXT
  5
50866
  8
D-TTL-TXT_文字_
  6
CONTINUOUS
 62
     7
 10
288035.9022047412
 20
47668.776507952578
 30
0.0
 40
350.0
  1
谷積正面図
  7
ＭＳ_ゴシック
1001
WACOM_STRING
1002
{
1070
   301
1002
}
1001
ACAD
1000
MTEXTBEGIN
1070
    73
1070
     1
1070
    44
1040
1.0
1070
    74
1070
     0
1000
MTEXTEND
1000
MTEXTBEGIN
1070
    73
1070
     1
1070
    44
1040
1.0
1070
    74
1070
     0
1000
MTEXTEND
  0
TEXT
  5
50867
  8
D-TTL-TXT_文字_
  6
CONTINUOUS
 62
     7
 10
286046.64568099682
 20
36604.752452443288
 30
0.0
 40
350.0
  1
根石・天端H=150型時
  7
ＭＳ_ゴシック
1001
WACOM_STRING
1002
{
1070
   301
1002
}
1001
ACAD
1000
MTEXTBEGIN
1070
    73
1070
     1
1070
    44
1040
1.0
1070
    74
1070
     0
1000
MTEXTEND
1000
MTEXTBEGIN
1070
    73
1070
     1
1070
    44
1040
1.0
1070
    74
1070
     0
1000
MTEXTEND
  0
LINE
  5
50AD5
  8
D-STR_構造物外形線_
  6
CONTINUOUS
 62
     1
 10
269730.29255174438
 20
42210.946864164041
 30
0.0
 11
269730.29255174438
 21
39380.946864164041
 31
0.0
  0
LINE
  5
50AD6
  8
D-STR_構造物外形線_
  6
CONTINUOUS
 62
     1
 10
269730.29255174438
 20
42210.946864164041
 30
0.0
 11
270230.29255174432
 21
42210.946864164041
 31
0.0
  0
LINE
  5
50AD7
  8
D-STR_構造物外形線_
  6
CONTINUOUS
 62
     1
 10
270230.29255174432
 20
42210.946864164041
 30
0.0
 11
271645.29255174432
 21
40795.946864164041
 31
0.0
  0
LINE
  5
50AD8
  8
D-STR_構造物外形線_
  6
CONTINUOUS
 62
     1
 10
271645.29255174432
 20
40795.946864164041
 30
0.0
 11
270230.29255174432
 21
39380.946864164041
 31
0.0
  0
LINE
  5
50AD9
  8
D-STR_構造物外形線_
  6
CONTINUOUS
 62
     1
 10
270230.29255174432
 20
39380.946864164041
 30
0.0
 11
269730.29255174438
 21
39380.946864164041
 31
0.0
  0
LINE
  5
50ADA
  8
D-STR_構造物外形線_
  6
CONTINUOUS
 62
     1
 10
269730.29255174438
 20
45040.946864164027
 30
0.0
 11
269730.29255174438
 21
42210.946864164041
 31
0.0
  0
LINE
  5
50ADB
  8
D-STR_構造物外形線_
  6
CONTINUOUS
 62
     1
 10
269730.29255174438
 20
45040.946864164027
 30
0.0
 11
270230.29255174432
 21
45040.946864164027
 31
0.0
  0
LINE
  5
50ADC
  8
D-STR_構造物外形線_
  6
CONTINUOUS
 62
     1
 10
270230.29255174432
 20
45040.946864164027
 30
0.0
 11
271645.29255174432
 21
43625.946864164041
 31
0.0
  0
LINE
  5
50ADD
  8
D-STR_構造物外形線_
  6
CONTINUOUS
 62
     1
 10
271645.29255174432
 20
43625.946864164041
 30
0.0
 11
270230.29255174432
 21
42210.946864164041
 31
0.0
  0
LINE
  5
50ADE
  8
D-STR_構造物外形線_
  6
CONTINUOUS
 62
     1
 10
270230.29255174432
 20
42210.946864164041
 30
0.0
 11
269730.29255174438
 21
42210.946864164041
 31
0.0
  0
LINE
  5
50ADF
  8
D-STR_構造物外形線_
  6
CONTINUOUS
 62
     1
 10
269730.29255174438
 20
39380.946864164041
 30
0.0
 11
269730.29255174438
 21
37465.946864164041
 31
0.0
  0
LINE
  5
50AE0
  8
D-STR_構造物外形線_
  6
CONTINUOUS
 62
     1
 10
269730.29255174438
 20
37465.946864164041
 30
0.0
 11
271645.2925517445
 21
37465.946864164041
 31
0.0
  0
LINE
  5
50AE1
  8
D-STR_構造物外形線_
  6
CONTINUOUS
 62
     1
 10
269730.29255174438
 20
39380.946864164041
 30
0.0
 11
270230.2925517445
 21
39380.946864164041
 31
0.0
  0
LINE
  5
50AE2
  8
D-STR_構造物外形線_
  6
CONTINUOUS
 62
     1
 10
270230.2925517445
 20
39380.946864164041
 30
0.0
 11
271645.2925517445
 21
37965.946864164041
 31
0.0
  0
LINE
  5
50AE3
  8
D-STR_構造物外形線_
  6
CONTINUOUS
 62
     1
 10
271645.2925517445
 20
37965.946864164041
 30
0.0
 11
271645.2925517445
 21
37465.946864164041
 31
0.0
  0
LINE
  5
50AE4
  8
D-STR_構造物外形線_
  6
CONTINUOUS
 62
     1
 10
271290.29255174438
 20
46600.946864164027
 30
0.0
 11
269730.29255174438
 21
46600.946864164027
 31
0.0
  0
LINE
  5
50AE5
  8
D-STR_構造物外形線_
  6
CONTINUOUS
 62
     1
 10
269730.29255174438
 20
46600.946864164027
 30
0.0
 11
269730.29255174438
 21
45040.946864164027
 31
0.0
  0
LINE
  5
50AE6
  8
D-STR_構造物外形線_
  6
CONTINUOUS
 62
     1
 10
271290.29255174438
 20
46600.946864164027
 30
0.0
 11
271290.29255174438
 21
46100.946864164027
 31
0.0
  0
LINE
  5
50AE7
  8
D-STR_構造物外形線_
  6
CONTINUOUS
 62
     1
 10
271290.29255174438
 20
46100.946864164027
 30
0.0
 11
270230.29255174432
 21
45040.946864164027
 31
0.0
  0
LINE
  5
50AE8
  8
D-STR_構造物外形線_
  6
CONTINUOUS
 62
     1
 10
270230.29255174432
 20
45040.946864164027
 30
0.0
 11
269730.29255174438
 21
45040.946864164027
 31
0.0
  0
LINE
  5
50AE9
  8
D-STR_構造物外形線_
  6
CONTINUOUS
 62
     1
 10
271290.9527235243
 20
40441.607035943758
 30
0.0
 11
270230.2925517445
 21
39380.946864164041
 31
0.0
  0
LINE
  5
50AEA
  8
D-STR_構造物外形線_
  6
CONTINUOUS
 62
     1
 10
270230.2925517445
 20
39380.946864164041
 30
0.0
 11
271644.50611411751
 21
37966.73330179094
 31
0.0
  0
LINE
  5
50AEB
  8
D-STR_構造物外形線_
  6
CONTINUOUS
 62
     1
 10
271644.50611411751
 20
37966.73330179094
 30
0.0
 11
272705.16628589737
 21
39027.393473570693
 31
0.0
  0
LINE
  5
50AEC
  8
D-STR_構造物外形線_
  6
CONTINUOUS
 62
     1
 10
272705.16628589737
 20
39027.393473570693
 30
0.0
 11
271290.9527235243
 21
40441.607035943758
 31
0.0
  0
LINE
  5
50AED
  8
D-STR_構造物外形線_
  6
CONTINUOUS
 62
     1
 10
271645.2925517445
 20
37465.946864164041
 30
0.0
 11
273765.2925517445
 21
37465.946864164041
 31
0.0
  0
LINE
  5
50AEE
  8
D-STR_構造物外形線_
  6
CONTINUOUS
 62
     1
 10
271645.2925517445
 20
37465.946864164041
 30
0.0
 11
271645.2925517445
 21
37965.946864164041
 31
0.0
  0
LINE
  5
50AEF
  8
D-STR_構造物外形線_
  6
CONTINUOUS
 62
     1
 10
271645.2925517445
 20
37965.946864164041
 30
0.0
 11
272705.29255174438
 21
39025.946864164041
 31
0.0
  0
LINE
  5
50AF0
  8
D-STR_構造物外形線_
  6
CONTINUOUS
 62
     1
 10
272705.29255174438
 20
39025.946864164041
 30
0.0
 11
273765.2925517445
 21
37965.946864164041
 31
0.0
  0
LINE
  5
50AF1
  8
D-STR_構造物外形線_
  6
CONTINUOUS
 62
     1
 10
273765.2925517445
 20
37965.946864164041
 30
0.0
 11
273765.2925517445
 21
37465.946864164041
 31
0.0
  0
TEXT
  5
50AF2
  8
D-TTL-TXT_文字_
  6
CONTINUOUS
 62
     7
 10
270036.6350471676
 20
40512.1783551962
 30
0.0
 40
350.0
  1
側石
  7
ＭＳ_ゴシック
1001
WACOM_STRING
1002
{
1070
   301
1002
}
1001
ACAD
1000
MTEXTBEGIN
1070
    73
1070
     1
1070
    44
1040
1.0
1070
    74
1070
     0
1000
MTEXTEND
1000
MTEXTBEGIN
1070
    73
1070
     1
1070
    44
1040
1.0
1070
    74
1070
     0
1000
MTEXTEND
  0
TEXT
  5
50AF3
  8
D-TTL-TXT_文字_
  6
CONTINUOUS
 62
     7
 10
270036.6350471676
 20
43342.178355196178
 30
0.0
 40
350.0
  1
側石
  7
ＭＳ_ゴシック
1001
WACOM_STRING
1002
{
1070
   301
1002
}
1001
ACAD
1000
MTEXTBEGIN
1070
    73
1070
     1
1070
    44
1040
1.0
1070
    74
1070
     0
1000
MTEXTEND
1000
MTEXTBEGIN
1070
    73
1070
     1
1070
    44
1040
1.0
1070
    74
1070
     0
1000
MTEXTEND
  0
TEXT
  5
50AF4
  8
D-TTL-TXT_文字_
  6
CONTINUOUS
 62
     7
 10
270036.6350471676
 20
45959.339446772523
 30
0.0
 40
350.0
  1
隅小
  7
ＭＳ_ゴシック
1001
WACOM_STRING
1002
{
1070
   301
1002
}
1001
ACAD
1000
MTEXTBEGIN
1070
    73
1070
     1
1070
    44
1040
1.0
1070
    74
1070
     0
1000
MTEXTEND
1000
MTEXTBEGIN
1070
    73
1070
     1
1070
    44
1040
1.0
1070
    74
1070
     0
1000
MTEXTEND
  0
TEXT
  5
50AF5
  8
D-TTL-TXT_文字_
  6
CONTINUOUS
 62
     7
 10
270036.6350471676
 20
37658.431692944483
 30
0.0
 40
350.0
  1
隅大
  7
ＭＳ_ゴシック
1001
WACOM_STRING
1002
{
1070
   301
1002
}
1001
ACAD
1000
MTEXTBEGIN
1070
    73
1070
     1
1070
    44
1040
1.0
1070
    74
1070
     0
1000
MTEXTEND
1000
MTEXTBEGIN
1070
    73
1070
     1
1070
    44
1040
1.0
1070
    74
1070
     0
1000
MTEXTEND
  0
TEXT
  5
50AF6
  8
D-TTL-TXT_文字_
  6
CONTINUOUS
 62
     7
 10
271808.95629472699
 20
37658.431692944483
 30
0.0
 40
350.0
  1
根石・天端
 41
0.8
  7
ＭＳ_ゴシック
1001
WACOM_STRING
1002
{
1070
   301
1002
}
1001
ACAD
1000
MTEXTBEGIN
1070
    73
1070
     1
1070
    44
1040
1.0
1070
    74
1070
     0
1000
MTEXTEND
1000
MTEXTBEGIN
1070
    73
1070
     1
1070
    44
1040
1.0
1070
    74
1070
     0
1000
MTEXTEND
  0
TEXT
  5
50AF7
  8
D-TTL-TXT_文字_
  6
CONTINUOUS
 62
     7
 10
271141.02137368452
 20
38995.666251767841
 30
0.0
 40
350.0
  1
基本
  7
ＭＳ_ゴシック
1001
WACOM_STRING
1002
{
1070
   301
1002
}
1001
ACAD
1000
MTEXTBEGIN
1070
    73
1070
     1
1070
    44
1040
1.0
1070
    74
1070
     0
1000
MTEXTEND
1000
MTEXTBEGIN
1070
    73
1070
     1
1070
    44
1040
1.0
1070
    74
1070
     0
1000
MTEXTEND
  0
LINE
  5
50AF8
  8
D-STR_構造物外形線_
  6
CONTINUOUS
 62
     1
 10
273765.2925517445
 20
37465.946864164041
 30
0.0
 11
275885.2925517445
 21
37465.946864164041
 31
0.0
  0
LINE
  5
50AF9
  8
D-STR_構造物外形線_
  6
CONTINUOUS
 62
     1
 10
273765.2925517445
 20
37465.946864164041
 30
0.0
 11
273765.2925517445
 21
37965.946864164041
 31
0.0
  0
LINE
  5
50AFA
  8
D-STR_構造物外形線_
  6
CONTINUOUS
 62
     1
 10
273765.2925517445
 20
37965.946864164041
 30
0.0
 11
274825.2925517445
 21
39025.946864164041
 31
0.0
  0
LINE
  5
50AFB
  8
D-STR_構造物外形線_
  6
CONTINUOUS
 62
     1
 10
274825.2925517445
 20
39025.946864164041
 30
0.0
 11
275885.2925517445
 21
37965.946864164041
 31
0.0
  0
LINE
  5
50AFC
  8
D-STR_構造物外形線_
  6
CONTINUOUS
 62
     1
 10
275885.2925517445
 20
37965.946864164041
 30
0.0
 11
275885.2925517445
 21
37465.946864164041
 31
0.0
  0
LINE
  5
50AFE
  8
D-STR_構造物外形線_
  6
CONTINUOUS
 62
     1
 10
275885.2925517445
 20
37465.946864164041
 30
0.0
 11
278005.2925517445
 21
37465.946864164041
 31
0.0
  0
LINE
  5
50AFF
  8
D-STR_構造物外形線_
  6
CONTINUOUS
 62
     1
 10
275885.2925517445
 20
37465.946864164041
 30
0.0
 11
275885.2925517445
 21
37965.946864164041
 31
0.0
  0
LINE
  5
50B00
  8
D-STR_構造物外形線_
  6
CONTINUOUS
 62
     1
 10
275885.2925517445
 20
37965.946864164041
 30
0.0
 11
276945.2925517445
 21
39025.946864164041
 31
0.0
  0
LINE
  5
50B01
  8
D-STR_構造物外形線_
  6
CONTINUOUS
 62
     1
 10
276945.2925517445
 20
39025.946864164041
 30
0.0
 11
278005.2925517445
 21
37965.946864164041
 31
0.0
  0
LINE
  5
50B02
  8
D-STR_構造物外形線_
  6
CONTINUOUS
 62
     1
 10
278005.2925517445
 20
37965.946864164041
 30
0.0
 11
278005.2925517445
 21
37465.946864164041
 31
0.0
  0
LINE
  5
50B04
  8
D-STR_構造物外形線_
  6
CONTINUOUS
 62
     1
 10
278005.2925517445
 20
37465.946864164041
 30
0.0
 11
279565.29255174438
 21
37465.946864164041
 31
0.0
  0
LINE
  5
50B05
  8
D-STR_構造物外形線_
  6
CONTINUOUS
 62
     1
 10
279565.29255174438
 20
37465.946864164041
 30
0.0
 11
279565.29255174438
 21
39025.946864164041
 31
0.0
  0
LINE
  5
50B06
  8
D-STR_構造物外形線_
  6
CONTINUOUS
 62
     1
 10
278005.2925517445
 20
37465.946864164041
 30
0.0
 11
278005.2925517445
 21
37965.946864164041
 31
0.0
  0
LINE
  5
50B07
  8
D-STR_構造物外形線_
  6
CONTINUOUS
 62
     1
 10
278005.2925517445
 20
37965.946864164041
 30
0.0
 11
279065.2925517445
 21
39025.946864164041
 31
0.0
  0
LINE
  5
50B08
  8
D-STR_構造物外形線_
  6
CONTINUOUS
 62
     1
 10
279065.2925517445
 20
39025.946864164041
 30
0.0
 11
279565.29255174438
 21
39025.946864164041
 31
0.0
  0
TEXT
  5
50B09
  8
D-TTL-TXT_文字_
  6
CONTINUOUS
 62
     7
 10
278508.6447051749
 20
37759.157770205267
 30
0.0
 40
350.0
  1
隅小
  7
ＭＳ_ゴシック
1001
WACOM_STRING
1002
{
1070
   301
1002
}
1001
ACAD
1000
MTEXTBEGIN
1070
    73
1070
     1
1070
    44
1040
1.0
1070
    74
1070
     0
1000
MTEXTEND
1000
MTEXTBEGIN
1070
    73
1070
     1
1070
    44
1040
1.0
1070
    74
1070
     0
1000
MTEXTEND
  0
LINE
  5
50B0A
  8
D-STR_構造物外形線_
  6
CONTINUOUS
 62
     1
 10
273410.9527235243
 20
40441.607035943758
 30
0.0
 11
272350.2925517445
 21
39380.946864164041
 31
0.0
  0
LINE
  5
50B0B
  8
D-STR_構造物外形線_
  6
CONTINUOUS
 62
     1
 10
272350.2925517445
 20
39380.946864164041
 30
0.0
 11
273764.50611411751
 21
37966.73330179094
 31
0.0
  0
LINE
  5
50B0C
  8
D-STR_構造物外形線_
  6
CONTINUOUS
 62
     1
 10
273764.50611411751
 20
37966.73330179094
 30
0.0
 11
274825.16628589749
 21
39027.393473570693
 31
0.0
  0
LINE
  5
50B0D
  8
D-STR_構造物外形線_
  6
CONTINUOUS
 62
     1
 10
274825.16628589749
 20
39027.393473570693
 30
0.0
 11
273410.9527235243
 21
40441.607035943758
 31
0.0
  0
LINE
  5
50B0E
  8
D-STR_構造物外形線_
  6
CONTINUOUS
 62
     1
 10
275530.9527235243
 20
40441.607035943758
 30
0.0
 11
274470.2925517445
 21
39380.946864164041
 31
0.0
  0
LINE
  5
50B0F
  8
D-STR_構造物外形線_
  6
CONTINUOUS
 62
     1
 10
274470.2925517445
 20
39380.946864164041
 30
0.0
 11
275884.50611411751
 21
37966.73330179094
 31
0.0
  0
LINE
  5
50B10
  8
D-STR_構造物外形線_
  6
CONTINUOUS
 62
     1
 10
275884.50611411751
 20
37966.73330179094
 30
0.0
 11
276945.16628589749
 21
39027.393473570693
 31
0.0
  0
LINE
  5
50B11
  8
D-STR_構造物外形線_
  6
CONTINUOUS
 62
     1
 10
276945.16628589749
 20
39027.393473570693
 30
0.0
 11
275530.9527235243
 21
40441.607035943758
 31
0.0
  0
LINE
  5
50B12
  8
D-STR_構造物外形線_
  6
CONTINUOUS
 62
     1
 10
277650.9527235243
 20
40441.607035943758
 30
0.0
 11
276590.29255174438
 21
39380.946864164041
 31
0.0
  0
LINE
  5
50B13
  8
D-STR_構造物外形線_
  6
CONTINUOUS
 62
     1
 10
276590.29255174438
 20
39380.946864164041
 30
0.0
 11
278004.50611411751
 21
37966.73330179094
 31
0.0
  0
LINE
  5
50B14
  8
D-STR_構造物外形線_
  6
CONTINUOUS
 62
     1
 10
278004.50611411751
 20
37966.73330179094
 30
0.0
 11
279065.16628589749
 21
39027.393473570693
 31
0.0
  0
LINE
  5
50B15
  8
D-STR_構造物外形線_
  6
CONTINUOUS
 62
     1
 10
279065.16628589749
 20
39027.393473570693
 30
0.0
 11
277650.9527235243
 21
40441.607035943758
 31
0.0
  0
LINE
  5
50B16
  8
D-STR_構造物外形線_
  6
CONTINUOUS
 62
     1
 10
275886.48662945692
 20
40794.500254757157
 30
0.0
 11
274825.82645767718
 21
41855.16042653707
 31
0.0
  0
LINE
  5
50B17
  8
D-STR_構造物外形線_
  6
CONTINUOUS
 62
     1
 10
274825.82645767718
 20
41855.16042653707
 30
0.0
 11
273411.6128953041
 21
40440.946864163947
 31
0.0
  0
LINE
  5
50B18
  8
D-STR_構造物外形線_
  6
CONTINUOUS
 62
     1
 10
273411.6128953041
 20
40440.946864163947
 30
0.0
 11
274472.27306708391
 21
39380.286692384027
 31
0.0
  0
LINE
  5
50B19
  8
D-STR_構造物外形線_
  6
CONTINUOUS
 62
     1
 10
274472.27306708391
 20
39380.286692384027
 30
0.0
 11
275886.48662945692
 21
40794.500254757157
 31
0.0
  0
LINE
  5
50B1A
  8
D-STR_構造物外形線_
  6
CONTINUOUS
 62
     1
 10
273765.82645767712
 20
40795.160426536968
 30
0.0
 11
272705.16628589737
 21
41855.820598316888
 31
0.0
  0
LINE
  5
50B1B
  8
D-STR_構造物外形線_
  6
CONTINUOUS
 62
     1
 10
272705.16628589737
 20
41855.820598316888
 30
0.0
 11
271290.9527235243
 21
40441.607035943758
 31
0.0
  0
LINE
  5
50B1C
  8
D-STR_構造物外形線_
  6
CONTINUOUS
 62
     1
 10
271290.9527235243
 20
40441.607035943758
 30
0.0
 11
272351.6128953041
 21
39380.946864163838
 31
0.0
  0
LINE
  5
50B1D
  8
D-STR_構造物外形線_
  6
CONTINUOUS
 62
     1
 10
272351.6128953041
 20
39380.946864163838
 30
0.0
 11
273765.82645767712
 21
40795.160426536968
 31
0.0
  0
LINE
  5
50B1E
  8
D-STR_構造物外形線_
  6
CONTINUOUS
 62
     1
 10
279565.29255174438
 20
41855.946864164041
 30
0.0
 11
279565.29255174438
 21
39025.946864164041
 31
0.0
  0
LINE
  5
50B1F
  8
D-STR_構造物外形線_
  6
CONTINUOUS
 62
     1
 10
279565.29255174438
 20
41855.946864164041
 30
0.0
 11
279065.2925517445
 21
41855.946864164041
 31
0.0
  0
LINE
  5
50B20
  8
D-STR_構造物外形線_
  6
CONTINUOUS
 62
     1
 10
279065.2925517445
 20
41855.946864164041
 30
0.0
 11
277650.2925517445
 21
40440.946864164041
 31
0.0
  0
LINE
  5
50B21
  8
D-STR_構造物外形線_
  6
CONTINUOUS
 62
     1
 10
277650.2925517445
 20
40440.946864164041
 30
0.0
 11
279065.2925517445
 21
39025.946864164041
 31
0.0
  0
LINE
  5
50B22
  8
D-STR_構造物外形線_
  6
CONTINUOUS
 62
     1
 10
279065.2925517445
 20
39025.946864164041
 30
0.0
 11
279565.29255174438
 21
39025.946864164041
 31
0.0
  0
LINE
  5
50B23
  8
D-STR_構造物外形線_
  6
CONTINUOUS
 62
     1
 10
279565.29255174438
 20
44685.946864164027
 30
0.0
 11
279565.29255174438
 21
41855.946864164041
 31
0.0
  0
LINE
  5
50B24
  8
D-STR_構造物外形線_
  6
CONTINUOUS
 62
     1
 10
279565.29255174438
 20
44685.946864164027
 30
0.0
 11
279065.2925517445
 21
44685.946864164027
 31
0.0
  0
LINE
  5
50B25
  8
D-STR_構造物外形線_
  6
CONTINUOUS
 62
     1
 10
279065.2925517445
 20
44685.946864164027
 30
0.0
 11
277650.2925517445
 21
43270.946864164041
 31
0.0
  0
LINE
  5
50B26
  8
D-STR_構造物外形線_
  6
CONTINUOUS
 62
     1
 10
277650.2925517445
 20
43270.946864164041
 30
0.0
 11
279065.2925517445
 21
41855.946864164041
 31
0.0
  0
LINE
  5
50B27
  8
D-STR_構造物外形線_
  6
CONTINUOUS
 62
     1
 10
279065.2925517445
 20
41855.946864164041
 30
0.0
 11
279565.29255174438
 21
41855.946864164041
 31
0.0
  0
LINE
  5
50B28
  8
D-STR_構造物外形線_
  6
CONTINUOUS
 62
     1
 10
278006.48662945698
 20
40794.500254757157
 30
0.0
 11
276945.82645767718
 21
41855.16042653707
 31
0.0
  0
LINE
  5
50B29
  8
D-STR_構造物外形線_
  6
CONTINUOUS
 62
     1
 10
276945.82645767718
 20
41855.16042653707
 30
0.0
 11
275531.6128953041
 21
40440.946864163947
 31
0.0
  0
LINE
  5
50B2A
  8
D-STR_構造物外形線_
  6
CONTINUOUS
 62
     1
 10
275531.6128953041
 20
40440.946864163947
 30
0.0
 11
276592.27306708391
 21
39380.286692384027
 31
0.0
  0
LINE
  5
50B2B
  8
D-STR_構造物外形線_
  6
CONTINUOUS
 62
     1
 10
276592.27306708391
 20
39380.286692384027
 30
0.0
 11
278006.48662945698
 21
40794.500254757157
 31
0.0
  0
LINE
  5
50B2C
  8
D-STR_構造物外形線_
  6
CONTINUOUS
 62
     1
 10
271291.07898937131
 20
43270.160426537113
 30
0.0
 11
270230.41881759139
 21
42209.500254757389
 31
0.0
  0
LINE
  5
50B2D
  8
D-STR_構造物外形線_
  6
CONTINUOUS
 62
     1
 10
270230.41881759139
 20
42209.500254757389
 30
0.0
 11
271644.63237996469
 21
40795.286692384281
 31
0.0
  0
LINE
  5
50B2E
  8
D-STR_構造物外形線_
  6
CONTINUOUS
 62
     1
 10
271644.63237996469
 20
40795.286692384281
 30
0.0
 11
272705.29255174438
 21
41855.946864164041
 31
0.0
  0
LINE
  5
50B2F
  8
D-STR_構造物外形線_
  6
CONTINUOUS
 62
     1
 10
272705.29255174438
 20
41855.946864164041
 30
0.0
 11
271291.07898937131
 21
43270.160426537113
 31
0.0
  0
LINE
  5
50B30
  8
D-STR_構造物外形線_
  6
CONTINUOUS
 62
     1
 10
273411.07898937131
 20
43270.160426537113
 30
0.0
 11
272350.41881759139
 21
42209.500254757389
 31
0.0
  0
LINE
  5
50B31
  8
D-STR_構造物外形線_
  6
CONTINUOUS
 62
     1
 10
272350.41881759139
 20
42209.500254757389
 30
0.0
 11
273764.63237996458
 21
40795.286692384281
 31
0.0
  0
LINE
  5
50B32
  8
D-STR_構造物外形線_
  6
CONTINUOUS
 62
     1
 10
273764.63237996458
 20
40795.286692384281
 30
0.0
 11
274825.2925517445
 21
41855.946864164041
 31
0.0
  0
LINE
  5
50B33
  8
D-STR_構造物外形線_
  6
CONTINUOUS
 62
     1
 10
274825.2925517445
 20
41855.946864164041
 30
0.0
 11
273411.07898937131
 21
43270.160426537113
 31
0.0
  0
LINE
  5
50B34
  8
D-STR_構造物外形線_
  6
CONTINUOUS
 62
     1
 10
275531.07898937131
 20
43270.160426537113
 30
0.0
 11
274470.41881759139
 21
42209.500254757389
 31
0.0
  0
LINE
  5
50B35
  8
D-STR_構造物外形線_
  6
CONTINUOUS
 62
     1
 10
274470.41881759139
 20
42209.500254757389
 30
0.0
 11
275884.63237996452
 21
40795.286692384281
 31
0.0
  0
LINE
  5
50B36
  8
D-STR_構造物外形線_
  6
CONTINUOUS
 62
     1
 10
275884.63237996452
 20
40795.286692384281
 30
0.0
 11
276945.2925517445
 21
41855.946864164041
 31
0.0
  0
LINE
  5
50B37
  8
D-STR_構造物外形線_
  6
CONTINUOUS
 62
     1
 10
276945.2925517445
 20
41855.946864164041
 30
0.0
 11
275531.07898937131
 21
43270.160426537113
 31
0.0
  0
LINE
  5
50B38
  8
D-STR_構造物外形線_
  6
CONTINUOUS
 62
     1
 10
277651.07898937131
 20
43270.160426537113
 30
0.0
 11
276590.41881759139
 21
42209.500254757389
 31
0.0
  0
LINE
  5
50B39
  8
D-STR_構造物外形線_
  6
CONTINUOUS
 62
     1
 10
276590.41881759139
 20
42209.500254757389
 30
0.0
 11
278004.63237996452
 21
40795.286692384281
 31
0.0
  0
LINE
  5
50B3A
  8
D-STR_構造物外形線_
  6
CONTINUOUS
 62
     1
 10
278004.63237996452
 20
40795.286692384281
 30
0.0
 11
279065.2925517445
 21
41855.946864164041
 31
0.0
  0
LINE
  5
50B3B
  8
D-STR_構造物外形線_
  6
CONTINUOUS
 62
     1
 10
279065.2925517445
 20
41855.946864164041
 30
0.0
 11
277651.07898937131
 21
43270.160426537113
 31
0.0
  0
LINE
  5
50B3C
  8
D-STR_構造物外形線_
  6
CONTINUOUS
 62
     1
 10
275887.27306708379
 20
43623.713817130301
 30
0.0
 11
274826.61289530399
 21
44684.373988910207
 31
0.0
  0
LINE
  5
50B3D
  8
D-STR_構造物外形線_
  6
CONTINUOUS
 62
     1
 10
274826.61289530399
 20
44684.373988910207
 30
0.0
 11
273412.39933293092
 21
43270.160426537092
 31
0.0
  0
LINE
  5
50B3E
  8
D-STR_構造物外形線_
  6
CONTINUOUS
 62
     1
 10
273412.39933293092
 20
43270.160426537092
 30
0.0
 11
274473.05950471072
 21
42209.500254757171
 31
0.0
  0
LINE
  5
50B3F
  8
D-STR_構造物外形線_
  6
CONTINUOUS
 62
     1
 10
274473.05950471072
 20
42209.500254757171
 30
0.0
 11
275887.27306708379
 21
43623.713817130301
 31
0.0
  0
LINE
  5
50B40
  8
D-STR_構造物外形線_
  6
CONTINUOUS
 62
     1
 10
273766.61289530387
 20
43624.373988910113
 30
0.0
 11
272705.9527235243
 21
44685.034160690033
 31
0.0
  0
LINE
  5
50B41
  8
D-STR_構造物外形線_
  6
CONTINUOUS
 62
     1
 10
272705.9527235243
 20
44685.034160690033
 30
0.0
 11
271291.73916115129
 21
43270.820598316903
 31
0.0
  0
LINE
  5
50B42
  8
D-STR_構造物外形線_
  6
CONTINUOUS
 62
     1
 10
271291.73916115129
 20
43270.820598316903
 30
0.0
 11
272352.39933293097
 21
42210.160426536982
 31
0.0
  0
LINE
  5
50B43
  8
D-STR_構造物外形線_
  6
CONTINUOUS
 62
     1
 10
272352.39933293097
 20
42210.160426536982
 30
0.0
 11
273766.61289530387
 21
43624.373988910113
 31
0.0
  0
LINE
  5
50B44
  8
D-STR_構造物外形線_
  6
CONTINUOUS
 62
     1
 10
278007.27306708379
 20
43623.713817130301
 30
0.0
 11
276946.61289530399
 21
44684.373988910207
 31
0.0
  0
LINE
  5
50B45
  8
D-STR_構造物外形線_
  6
CONTINUOUS
 62
     1
 10
276946.61289530399
 20
44684.373988910207
 30
0.0
 11
275532.39933293092
 21
43270.160426537092
 31
0.0
  0
LINE
  5
50B46
  8
D-STR_構造物外形線_
  6
CONTINUOUS
 62
     1
 10
275532.39933293092
 20
43270.160426537092
 30
0.0
 11
276593.05950471078
 21
42209.500254757171
 31
0.0
  0
LINE
  5
50B47
  8
D-STR_構造物外形線_
  6
CONTINUOUS
 62
     1
 10
276593.05950471078
 20
42209.500254757171
 30
0.0
 11
278007.27306708379
 21
43623.713817130301
 31
0.0
  0
LINE
  5
50B48
  8
D-STR_構造物外形線_
  6
CONTINUOUS
 62
     1
 10
271291.86542699812
 20
46099.373988910258
 30
0.0
 11
270231.2052552182
 21
45038.713817130527
 31
0.0
  0
LINE
  5
50B49
  8
D-STR_構造物外形線_
  6
CONTINUOUS
 62
     1
 10
270231.2052552182
 20
45038.713817130527
 30
0.0
 11
271645.41881759139
 21
43624.500254757433
 31
0.0
  0
LINE
  5
50B4A
  8
D-STR_構造物外形線_
  6
CONTINUOUS
 62
     1
 10
271645.41881759139
 20
43624.500254757433
 30
0.0
 11
272706.07898937131
 21
44685.160426537179
 31
0.0
  0
LINE
  5
50B4B
  8
D-STR_構造物外形線_
  6
CONTINUOUS
 62
     1
 10
272706.07898937131
 20
44685.160426537179
 30
0.0
 11
271291.86542699812
 21
46099.373988910258
 31
0.0
  0
LINE
  5
50B4C
  8
D-STR_構造物外形線_
  6
CONTINUOUS
 62
     1
 10
273411.86542699812
 20
46099.373988910258
 30
0.0
 11
272351.2052552182
 21
45038.713817130527
 31
0.0
  0
LINE
  5
50B4D
  8
D-STR_構造物外形線_
  6
CONTINUOUS
 62
     1
 10
272351.2052552182
 20
45038.713817130527
 30
0.0
 11
273765.41881759127
 21
43624.500254757433
 31
0.0
  0
LINE
  5
50B4E
  8
D-STR_構造物外形線_
  6
CONTINUOUS
 62
     1
 10
273765.41881759127
 20
43624.500254757433
 30
0.0
 11
274826.07898937131
 21
44685.160426537179
 31
0.0
  0
LINE
  5
50B4F
  8
D-STR_構造物外形線_
  6
CONTINUOUS
 62
     1
 10
274826.07898937131
 20
44685.160426537179
 30
0.0
 11
273411.86542699812
 21
46099.373988910258
 31
0.0
  0
LINE
  5
50B50
  8
D-STR_構造物外形線_
  6
CONTINUOUS
 62
     1
 10
275531.86542699812
 20
46099.373988910258
 30
0.0
 11
274471.2052552182
 21
45038.713817130527
 31
0.0
  0
LINE
  5
50B51
  8
D-STR_構造物外形線_
  6
CONTINUOUS
 62
     1
 10
274471.2052552182
 20
45038.713817130527
 30
0.0
 11
275885.41881759127
 21
43624.500254757433
 31
0.0
  0
LINE
  5
50B52
  8
D-STR_構造物外形線_
  6
CONTINUOUS
 62
     1
 10
275885.41881759127
 20
43624.500254757433
 30
0.0
 11
276946.07898937142
 21
44685.160426537179
 31
0.0
  0
LINE
  5
50B53
  8
D-STR_構造物外形線_
  6
CONTINUOUS
 62
     1
 10
276946.07898937142
 20
44685.160426537179
 30
0.0
 11
275531.86542699812
 21
46099.373988910258
 31
0.0
  0
LINE
  5
50B54
  8
D-STR_構造物外形線_
  6
CONTINUOUS
 62
     1
 10
277651.86542699818
 20
46099.373988910258
 30
0.0
 11
276591.2052552182
 21
45038.713817130527
 31
0.0
  0
LINE
  5
50B55
  8
D-STR_構造物外形線_
  6
CONTINUOUS
 62
     1
 10
276591.2052552182
 20
45038.713817130527
 30
0.0
 11
278005.41881759139
 21
43624.500254757433
 31
0.0
  0
LINE
  5
50B56
  8
D-STR_構造物外形線_
  6
CONTINUOUS
 62
     1
 10
278005.41881759139
 20
43624.500254757433
 30
0.0
 11
279066.07898937131
 21
44685.160426537179
 31
0.0
  0
LINE
  5
50B57
  8
D-STR_構造物外形線_
  6
CONTINUOUS
 62
     1
 10
279066.07898937131
 20
44685.160426537179
 30
0.0
 11
277651.86542699818
 21
46099.373988910258
 31
0.0
  0
LINE
  5
50B58
  8
D-STR_構造物外形線_
  6
CONTINUOUS
 62
     1
 10
271290.29255174438
 20
46600.946864164027
 30
0.0
 11
273410.29255174438
 21
46600.946864164027
 31
0.0
  0
LINE
  5
50B59
  8
D-STR_構造物外形線_
  6
CONTINUOUS
 62
     1
 10
271290.29255174438
 20
46600.946864164027
 30
0.0
 11
271290.29255174438
 21
46100.946864164027
 31
0.0
  0
LINE
  5
50B5A
  8
D-STR_構造物外形線_
  6
CONTINUOUS
 62
     1
 10
271290.29255174438
 20
46100.946864164027
 30
0.0
 11
272350.29255174432
 21
45040.946864164027
 31
0.0
  0
LINE
  5
50B5B
  8
D-STR_構造物外形線_
  6
CONTINUOUS
 62
     1
 10
272350.29255174432
 20
45040.946864164027
 30
0.0
 11
273410.29255174438
 21
46100.946864164027
 31
0.0
  0
LINE
  5
50B5C
  8
D-STR_構造物外形線_
  6
CONTINUOUS
 62
     1
 10
273410.29255174438
 20
46100.946864164027
 30
0.0
 11
273410.29255174438
 21
46600.946864164027
 31
0.0
  0
LINE
  5
50B5D
  8
D-STR_構造物外形線_
  6
CONTINUOUS
 62
     1
 10
273410.29255174438
 20
46600.946864164027
 30
0.0
 11
275530.29255174432
 21
46600.946864164027
 31
0.0
  0
LINE
  5
50B5E
  8
D-STR_構造物外形線_
  6
CONTINUOUS
 62
     1
 10
273410.29255174438
 20
46600.946864164027
 30
0.0
 11
273410.29255174438
 21
46100.946864164027
 31
0.0
  0
LINE
  5
50B5F
  8
D-STR_構造物外形線_
  6
CONTINUOUS
 62
     1
 10
273410.29255174438
 20
46100.946864164027
 30
0.0
 11
274470.29255174438
 21
45040.946864164027
 31
0.0
  0
LINE
  5
50B60
  8
D-STR_構造物外形線_
  6
CONTINUOUS
 62
     1
 10
274470.29255174438
 20
45040.946864164027
 30
0.0
 11
275530.29255174432
 21
46100.946864164027
 31
0.0
  0
LINE
  5
50B61
  8
D-STR_構造物外形線_
  6
CONTINUOUS
 62
     1
 10
275530.29255174432
 20
46100.946864164027
 30
0.0
 11
275530.29255174432
 21
46600.946864164027
 31
0.0
  0
LINE
  5
50B62
  8
D-STR_構造物外形線_
  6
CONTINUOUS
 62
     1
 10
275530.29255174432
 20
46600.946864164027
 30
0.0
 11
277650.29255174432
 21
46600.946864164027
 31
0.0
  0
LINE
  5
50B63
  8
D-STR_構造物外形線_
  6
CONTINUOUS
 62
     1
 10
275530.29255174432
 20
46600.946864164027
 30
0.0
 11
275530.29255174432
 21
46100.946864164027
 31
0.0
  0
LINE
  5
50B64
  8
D-STR_構造物外形線_
  6
CONTINUOUS
 62
     1
 10
275530.29255174432
 20
46100.946864164027
 30
0.0
 11
276590.29255174438
 21
45040.946864164027
 31
0.0
  0
LINE
  5
50B65
  8
D-STR_構造物外形線_
  6
CONTINUOUS
 62
     1
 10
276590.29255174438
 20
45040.946864164027
 30
0.0
 11
277650.29255174432
 21
46100.946864164027
 31
0.0
  0
LINE
  5
50B66
  8
D-STR_構造物外形線_
  6
CONTINUOUS
 62
     1
 10
277650.29255174432
 20
46100.946864164027
 30
0.0
 11
277650.29255174432
 21
46600.946864164027
 31
0.0
  0
LINE
  5
50B67
  8
D-STR_構造物外形線_
  6
CONTINUOUS
 62
     1
 10
279565.29255174438
 20
44685.946864164027
 30
0.0
 11
279565.29255174438
 21
46600.946864164027
 31
0.0
  0
LINE
  5
50B68
  8
D-STR_構造物外形線_
  6
CONTINUOUS
 62
     1
 10
279565.29255174438
 20
46600.946864164027
 30
0.0
 11
277650.2925517445
 21
46600.946864164027
 31
0.0
  0
LINE
  5
50B69
  8
D-STR_構造物外形線_
  6
CONTINUOUS
 62
     1
 10
279565.29255174438
 20
44685.946864164027
 30
0.0
 11
279065.2925517445
 21
44685.946864164027
 31
0.0
  0
LINE
  5
50B6A
  8
D-STR_構造物外形線_
  6
CONTINUOUS
 62
     1
 10
279065.2925517445
 20
44685.946864164027
 30
0.0
 11
277650.2925517445
 21
46100.946864164027
 31
0.0
  0
LINE
  5
50B6B
  8
D-STR_構造物外形線_
  6
CONTINUOUS
 62
     1
 10
277650.2925517445
 20
46100.946864164027
 30
0.0
 11
277650.2925517445
 21
46600.946864164027
 31
0.0
  0
TEXT
  5
50B6C
  8
D-TTL-TXT_文字_
  6
CONTINUOUS
 62
     7
 10
273156.4265880133
 20
47668.776507952578
 30
0.0
 40
350.0
  1
谷積正面図
  7
ＭＳ_ゴシック
1001
WACOM_STRING
1002
{
1070
   301
1002
}
1001
ACAD
1000
MTEXTBEGIN
1070
    73
1070
     1
1070
    44
1040
1.0
1070
    74
1070
     0
1000
MTEXTEND
1000
MTEXTBEGIN
1070
    73
1070
     1
1070
    44
1040
1.0
1070
    74
1070
     0
1000
MTEXTEND
  0
TEXT
  5
50B6D
  8
D-TTL-TXT_文字_
  6
CONTINUOUS
 62
     7
 10
272638.30448732042
 20
36604.752452443288
 30
0.0
 40
350.0
  1
根石・天端H=100型時
  7
ＭＳ_ゴシック
1001
WACOM_STRING
1002
{
1070
   301
1002
}
1001
ACAD
1000
MTEXTBEGIN
1070
    73
1070
     1
1070
    44
1040
1.0
1070
    74
1070
     0
1000
MTEXTEND
1000
MTEXTBEGIN
1070
    73
1070
     1
1070
    44
1040
1.0
1070
    74
1070
     0
1000
MTEXTEND
  0
LINE
  5
50B9C
  8
D-STR_構造物外形線_
  6
CONTINUOUS
 62
     1
 10
283865.36523830181
 20
39630.946864164041
 30
0.0
 11
283865.36523830181
 21
37465.946864164041
 31
0.0
  0
LINE
  5
50B9D
  8
D-STR_構造物外形線_
  6
CONTINUOUS
 62
     1
 10
283865.36523830181
 20
37465.946864164041
 30
0.0
 11
285780.36523830181
 21
37465.946864164041
 31
0.0
  0
LINE
  5
50B9E
  8
D-STR_構造物外形線_
  6
CONTINUOUS
 62
     1
 10
283865.36523830181
 20
39630.946864164041
 30
0.0
 11
284365.36523830181
 21
39630.946864164041
 31
0.0
  0
LINE
  5
50B9F
  8
D-STR_構造物外形線_
  6
CONTINUOUS
 62
     1
 10
284365.36523830181
 20
39630.946864164041
 30
0.0
 11
285780.36523830181
 21
38215.946864164041
 31
0.0
  0
LINE
  5
50BA0
  8
D-STR_構造物外形線_
  6
CONTINUOUS
 62
     1
 10
285780.36523830181
 20
38215.946864164041
 30
0.0
 11
285780.36523830181
 21
37465.946864164041
 31
0.0
  0
LINE
  5
50BA2
  8
D-STR_構造物外形線_
  6
CONTINUOUS
 62
     1
 10
285780.36523830181
 20
37465.946864164041
 30
0.0
 11
287900.36523830181
 21
37465.946864164041
 31
0.0
  0
LINE
  5
50BA3
  8
D-STR_構造物外形線_
  6
CONTINUOUS
 62
     1
 10
285780.36523830181
 20
37465.946864164041
 30
0.0
 11
285780.36523830181
 21
38215.946864164071
 31
0.0
  0
LINE
  5
50BA4
  8
D-STR_構造物外形線_
  6
CONTINUOUS
 62
     1
 10
285780.36523830169
 20
38215.946864164041
 30
0.0
 11
286840.36523830192
 21
39275.946864164041
 31
0.0
  0
LINE
  5
50BA5
  8
D-STR_構造物外形線_
  6
CONTINUOUS
 62
     1
 10
286840.36523830192
 20
39275.946864164041
 30
0.0
 11
287900.36523830181
 21
38215.946864164041
 31
0.0
  0
LINE
  5
50BA6
  8
D-STR_構造物外形線_
  6
CONTINUOUS
 62
     1
 10
287900.36523830192
 20
38215.946864164012
 30
0.0
 11
287900.36523830181
 21
37465.946864164041
 31
0.0
  0
LINE
  5
50BA8
  8
D-STR_構造物外形線_
  6
CONTINUOUS
 62
     1
 10
283865.36523830181
 20
42460.946864164027
 30
0.0
 11
283865.36523830181
 21
39630.946864164041
 31
0.0
  0
LINE
  5
50BA9
  8
D-STR_構造物外形線_
  6
CONTINUOUS
 62
     1
 10
283865.36523830181
 20
42460.946864164027
 30
0.0
 11
284365.36523830181
 21
42460.946864164027
 31
0.0
  0
LINE
  5
50BAA
  8
D-STR_構造物外形線_
  6
CONTINUOUS
 62
     1
 10
284365.36523830181
 20
42460.946864164027
 30
0.0
 11
285780.36523830181
 21
41045.946864164041
 31
0.0
  0
LINE
  5
50BAB
  8
D-STR_構造物外形線_
  6
CONTINUOUS
 62
     1
 10
285780.36523830181
 20
41045.946864164041
 30
0.0
 11
284365.36523830181
 21
39630.946864164041
 31
0.0
  0
LINE
  5
50BAC
  8
D-STR_構造物外形線_
  6
CONTINUOUS
 62
     1
 10
284365.36523830181
 20
39630.946864164041
 30
0.0
 11
283865.36523830192
 21
39630.946864164041
 31
0.0
  0
LINE
  5
50BAD
  8
D-STR_構造物外形線_
  6
CONTINUOUS
 62
     1
 10
283865.36523830181
 20
45290.946864164027
 30
0.0
 11
283865.36523830181
 21
42460.946864164027
 31
0.0
  0
LINE
  5
50BAE
  8
D-STR_構造物外形線_
  6
CONTINUOUS
 62
     1
 10
283865.36523830181
 20
45290.946864164027
 30
0.0
 11
284365.36523830181
 21
45290.946864164027
 31
0.0
  0
LINE
  5
50BAF
  8
D-STR_構造物外形線_
  6
CONTINUOUS
 62
     1
 10
284365.36523830181
 20
45290.946864164027
 30
0.0
 11
285780.36523830169
 21
43875.946864164041
 31
0.0
  0
LINE
  5
50BB0
  8
D-STR_構造物外形線_
  6
CONTINUOUS
 62
     1
 10
285780.36523830169
 20
43875.946864164041
 30
0.0
 11
284365.36523830181
 21
42460.946864164027
 31
0.0
  0
LINE
  5
50BB1
  8
D-STR_構造物外形線_
  6
CONTINUOUS
 62
     1
 10
284365.36523830181
 20
42460.946864164027
 30
0.0
 11
283865.36523830181
 21
42460.946864164027
 31
0.0
  0
LINE
  5
50BB4
  8
D-STR_構造物外形線_
  6
CONTINUOUS
 62
     1
 10
285426.02541008178
 20
40691.607035943744
 30
0.0
 11
284365.36523830181
 21
39630.946864164041
 31
0.0
  0
LINE
  5
50BB5
  8
D-STR_構造物外形線_
  6
CONTINUOUS
 62
     1
 10
284365.36523830181
 20
39630.946864164041
 30
0.0
 11
285779.57880067488
 21
38216.73330179094
 31
0.0
  0
LINE
  5
50BB6
  8
D-STR_構造物外形線_
  6
CONTINUOUS
 62
     1
 10
285779.57880067488
 20
38216.73330179094
 30
0.0
 11
286840.23897245491
 21
39277.393473570693
 31
0.0
  0
LINE
  5
50BB7
  8
D-STR_構造物外形線_
  6
CONTINUOUS
 62
     1
 10
286840.23897245491
 20
39277.393473570693
 30
0.0
 11
285426.02541008178
 21
40691.607035943744
 31
0.0
  0
TEXT
  5
50BB8
  8
D-TTL-TXT_文字_
  6
CONTINUOUS
 62
     7
 10
285276.09406024189
 20
39245.666251767841
 30
0.0
 40
350.0
  1
基本
  7
ＭＳ_ゴシック
1001
WACOM_STRING
1002
{
1070
   301
1002
}
1001
ACAD
1000
MTEXTBEGIN
1070
    73
1070
     1
1070
    44
1040
1.0
1070
    74
1070
     0
1000
MTEXTEND
1000
MTEXTBEGIN
1070
    73
1070
     1
1070
    44
1040
1.0
1070
    74
1070
     0
1000
MTEXTEND
  0
LINE
  5
50BB9
  8
D-STR_構造物外形線_
  6
CONTINUOUS
 62
     1
 10
287546.02541008178
 20
40691.607035943744
 30
0.0
 11
286485.36523830181
 21
39630.946864164041
 31
0.0
  0
LINE
  5
50BBA
  8
D-STR_構造物外形線_
  6
CONTINUOUS
 62
     1
 10
286485.36523830181
 20
39630.946864164041
 30
0.0
 11
287899.57880067488
 21
38216.73330179094
 31
0.0
  0
LINE
  5
50BBB
  8
D-STR_構造物外形線_
  6
CONTINUOUS
 62
     1
 10
287899.57880067488
 20
38216.73330179094
 30
0.0
 11
288960.23897245491
 21
39277.393473570693
 31
0.0
  0
LINE
  5
50BBC
  8
D-STR_構造物外形線_
  6
CONTINUOUS
 62
     1
 10
288960.23897245491
 20
39277.393473570693
 30
0.0
 11
287546.02541008178
 21
40691.607035943744
 31
0.0
  0
LINE
  5
50BBD
  8
D-STR_構造物外形線_
  6
CONTINUOUS
 62
     1
 10
289666.02541008173
 20
40691.607035943744
 30
0.0
 11
288605.36523830181
 21
39630.946864164041
 31
0.0
  0
LINE
  5
50BBE
  8
D-STR_構造物外形線_
  6
CONTINUOUS
 62
     1
 10
288605.36523830181
 20
39630.946864164041
 30
0.0
 11
290019.57880067499
 21
38216.73330179094
 31
0.0
  0
LINE
  5
50BBF
  8
D-STR_構造物外形線_
  6
CONTINUOUS
 62
     1
 10
290019.57880067499
 20
38216.73330179094
 30
0.0
 11
291080.23897245491
 21
39277.393473570693
 31
0.0
  0
LINE
  5
50BC0
  8
D-STR_構造物外形線_
  6
CONTINUOUS
 62
     1
 10
291080.23897245491
 20
39277.393473570693
 30
0.0
 11
289666.02541008173
 21
40691.607035943744
 31
0.0
  0
LINE
  5
50BC1
  8
D-STR_構造物外形線_
  6
CONTINUOUS
 62
     1
 10
291786.02541008178
 20
40691.607035943744
 30
0.0
 11
290725.36523830181
 21
39630.946864164041
 31
0.0
  0
LINE
  5
50BC2
  8
D-STR_構造物外形線_
  6
CONTINUOUS
 62
     1
 10
290725.36523830181
 20
39630.946864164041
 30
0.0
 11
292139.57880067499
 21
38216.73330179094
 31
0.0
  0
LINE
  5
50BC3
  8
D-STR_構造物外形線_
  6
CONTINUOUS
 62
     1
 10
292139.57880067499
 20
38216.73330179094
 30
0.0
 11
293200.23897245491
 21
39277.393473570693
 31
0.0
  0
LINE
  5
50BC4
  8
D-STR_構造物外形線_
  6
CONTINUOUS
 62
     1
 10
293200.23897245491
 20
39277.393473570693
 30
0.0
 11
291786.02541008178
 21
40691.607035943744
 31
0.0
  0
LINE
  5
50BC5
  8
D-STR_構造物外形線_
  6
CONTINUOUS
 62
     1
 10
290021.55931601441
 20
41044.500254757142
 30
0.0
 11
288960.8991442346
 21
42105.160426537077
 31
0.0
  0
LINE
  5
50BC6
  8
D-STR_構造物外形線_
  6
CONTINUOUS
 62
     1
 10
288960.8991442346
 20
42105.160426537077
 30
0.0
 11
287546.68558186147
 21
40690.946864163932
 31
0.0
  0
LINE
  5
50BC7
  8
D-STR_構造物外形線_
  6
CONTINUOUS
 62
     1
 10
287546.68558186147
 20
40690.946864163932
 30
0.0
 11
288607.34575364128
 21
39630.286692384027
 31
0.0
  0
LINE
  5
50BC8
  8
D-STR_構造物外形線_
  6
CONTINUOUS
 62
     1
 10
288607.34575364128
 20
39630.286692384027
 30
0.0
 11
290021.55931601441
 21
41044.500254757142
 31
0.0
  0
LINE
  5
50BC9
  8
D-STR_構造物外形線_
  6
CONTINUOUS
 62
     1
 10
287900.8991442346
 20
41045.160426536953
 30
0.0
 11
286840.2389724548
 21
42105.820598316888
 31
0.0
  0
LINE
  5
50BCA
  8
D-STR_構造物外形線_
  6
CONTINUOUS
 62
     1
 10
286840.2389724548
 20
42105.820598316888
 30
0.0
 11
285426.02541008178
 21
40691.607035943744
 31
0.0
  0
LINE
  5
50BCB
  8
D-STR_構造物外形線_
  6
CONTINUOUS
 62
     1
 10
285426.02541008178
 20
40691.607035943744
 30
0.0
 11
286486.68558186147
 21
39630.946864163838
 31
0.0
  0
LINE
  5
50BCC
  8
D-STR_構造物外形線_
  6
CONTINUOUS
 62
     1
 10
286486.68558186147
 20
39630.946864163838
 30
0.0
 11
287900.8991442346
 21
41045.160426536953
 31
0.0
  0
LINE
  5
50BCD
  8
D-STR_構造物外形線_
  6
CONTINUOUS
 62
     1
 10
292141.55931601452
 20
41044.500254757142
 30
0.0
 11
291080.8991442346
 21
42105.160426537077
 31
0.0
  0
LINE
  5
50BCE
  8
D-STR_構造物外形線_
  6
CONTINUOUS
 62
     1
 10
291080.8991442346
 20
42105.160426537077
 30
0.0
 11
289666.68558186159
 21
40690.946864163932
 31
0.0
  0
LINE
  5
50BCF
  8
D-STR_構造物外形線_
  6
CONTINUOUS
 62
     1
 10
289666.68558186159
 20
40690.946864163932
 30
0.0
 11
290727.34575364128
 21
39630.286692384027
 31
0.0
  0
LINE
  5
50BD0
  8
D-STR_構造物外形線_
  6
CONTINUOUS
 62
     1
 10
290727.34575364128
 20
39630.286692384027
 30
0.0
 11
292141.55931601452
 21
41044.500254757142
 31
0.0
  0
LINE
  5
50BD1
  8
D-STR_構造物外形線_
  6
CONTINUOUS
 62
     1
 10
285426.15167592868
 20
43520.160426537113
 30
0.0
 11
284365.49150414899
 21
42459.500254757397
 31
0.0
  0
LINE
  5
50BD2
  8
D-STR_構造物外形線_
  6
CONTINUOUS
 62
     1
 10
284365.49150414899
 20
42459.500254757397
 30
0.0
 11
285779.705066522
 21
41045.286692384303
 31
0.0
  0
LINE
  5
50BD3
  8
D-STR_構造物外形線_
  6
CONTINUOUS
 62
     1
 10
285779.705066522
 20
41045.286692384303
 30
0.0
 11
286840.36523830192
 21
42105.946864164041
 31
0.0
  0
LINE
  5
50BD4
  8
D-STR_構造物外形線_
  6
CONTINUOUS
 62
     1
 10
286840.36523830192
 20
42105.946864164041
 30
0.0
 11
285426.15167592868
 21
43520.160426537113
 31
0.0
  0
LINE
  5
50BD5
  8
D-STR_構造物外形線_
  6
CONTINUOUS
 62
     1
 10
287546.15167592868
 20
43520.160426537113
 30
0.0
 11
286485.49150414887
 21
42459.500254757397
 31
0.0
  0
LINE
  5
50BD6
  8
D-STR_構造物外形線_
  6
CONTINUOUS
 62
     1
 10
286485.49150414887
 20
42459.500254757397
 30
0.0
 11
287899.70506652188
 21
41045.286692384303
 31
0.0
  0
LINE
  5
50BD7
  8
D-STR_構造物外形線_
  6
CONTINUOUS
 62
     1
 10
287899.70506652188
 20
41045.286692384303
 30
0.0
 11
288960.36523830198
 21
42105.946864164041
 31
0.0
  0
LINE
  5
50BD8
  8
D-STR_構造物外形線_
  6
CONTINUOUS
 62
     1
 10
288960.36523830198
 20
42105.946864164041
 30
0.0
 11
287546.15167592868
 21
43520.160426537113
 31
0.0
  0
LINE
  5
50BD9
  8
D-STR_構造物外形線_
  6
CONTINUOUS
 62
     1
 10
289666.15167592879
 20
43520.160426537113
 30
0.0
 11
288605.49150414887
 21
42459.500254757397
 31
0.0
  0
LINE
  5
50BDA
  8
D-STR_構造物外形線_
  6
CONTINUOUS
 62
     1
 10
288605.49150414887
 20
42459.500254757397
 30
0.0
 11
290019.705066522
 21
41045.286692384303
 31
0.0
  0
LINE
  5
50BDB
  8
D-STR_構造物外形線_
  6
CONTINUOUS
 62
     1
 10
290019.705066522
 20
41045.286692384303
 30
0.0
 11
291080.36523830198
 21
42105.946864164041
 31
0.0
  0
LINE
  5
50BDC
  8
D-STR_構造物外形線_
  6
CONTINUOUS
 62
     1
 10
291080.36523830198
 20
42105.946864164041
 30
0.0
 11
289666.15167592879
 21
43520.160426537113
 31
0.0
  0
LINE
  5
50BDD
  8
D-STR_構造物外形線_
  6
CONTINUOUS
 62
     1
 10
291786.15167592879
 20
43520.160426537113
 30
0.0
 11
290725.49150414881
 21
42459.500254757397
 31
0.0
  0
LINE
  5
50BDE
  8
D-STR_構造物外形線_
  6
CONTINUOUS
 62
     1
 10
290725.49150414881
 20
42459.500254757397
 30
0.0
 11
292139.705066522
 21
41045.286692384303
 31
0.0
  0
LINE
  5
50BDF
  8
D-STR_構造物外形線_
  6
CONTINUOUS
 62
     1
 10
292139.705066522
 20
41045.286692384303
 30
0.0
 11
293200.36523830181
 21
42105.946864164041
 31
0.0
  0
LINE
  5
50BE0
  8
D-STR_構造物外形線_
  6
CONTINUOUS
 62
     1
 10
293200.36523830181
 20
42105.946864164041
 30
0.0
 11
291786.15167592879
 21
43520.160426537113
 31
0.0
  0
LINE
  5
50BE1
  8
D-STR_構造物外形線_
  6
CONTINUOUS
 62
     1
 10
290022.34575364128
 20
43873.713817130287
 30
0.0
 11
288961.68558186141
 21
44934.373988910207
 31
0.0
  0
LINE
  5
50BE2
  8
D-STR_構造物外形線_
  6
CONTINUOUS
 62
     1
 10
288961.68558186141
 20
44934.373988910207
 30
0.0
 11
287547.4720194884
 21
43520.160426537092
 31
0.0
  0
LINE
  5
50BE3
  8
D-STR_構造物外形線_
  6
CONTINUOUS
 62
     1
 10
287547.4720194884
 20
43520.160426537092
 30
0.0
 11
288608.13219126809
 21
42459.500254757171
 31
0.0
  0
LINE
  5
50BE4
  8
D-STR_構造物外形線_
  6
CONTINUOUS
 62
     1
 10
288608.13219126809
 20
42459.500254757171
 30
0.0
 11
290022.34575364128
 21
43873.713817130287
 31
0.0
  0
LINE
  5
50BE5
  8
D-STR_構造物外形線_
  6
CONTINUOUS
 62
     1
 10
287901.68558186141
 20
43874.373988910113
 30
0.0
 11
286841.02541008161
 21
44935.034160690033
 31
0.0
  0
LINE
  5
50BE6
  8
D-STR_構造物外形線_
  6
CONTINUOUS
 62
     1
 10
286841.02541008161
 20
44935.034160690033
 30
0.0
 11
285426.8118477086
 21
43520.820598316903
 31
0.0
  0
LINE
  5
50BE7
  8
D-STR_構造物外形線_
  6
CONTINUOUS
 62
     1
 10
285426.8118477086
 20
43520.820598316903
 30
0.0
 11
286487.47201948828
 21
42460.160426536982
 31
0.0
  0
LINE
  5
50BE8
  8
D-STR_構造物外形線_
  6
CONTINUOUS
 62
     1
 10
286487.47201948828
 20
42460.160426536982
 30
0.0
 11
287901.68558186141
 21
43874.373988910113
 31
0.0
  0
LINE
  5
50BE9
  8
D-STR_構造物外形線_
  6
CONTINUOUS
 62
     1
 10
292142.34575364128
 20
43873.713817130287
 30
0.0
 11
291081.68558186147
 21
44934.373988910207
 31
0.0
  0
LINE
  5
50BEA
  8
D-STR_構造物外形線_
  6
CONTINUOUS
 62
     1
 10
291081.68558186147
 20
44934.373988910207
 30
0.0
 11
289667.4720194884
 21
43520.160426537092
 31
0.0
  0
LINE
  5
50BEB
  8
D-STR_構造物外形線_
  6
CONTINUOUS
 62
     1
 10
289667.4720194884
 20
43520.160426537092
 30
0.0
 11
290728.13219126809
 21
42459.500254757171
 31
0.0
  0
LINE
  5
50BEC
  8
D-STR_構造物外形線_
  6
CONTINUOUS
 62
     1
 10
290728.13219126809
 20
42459.500254757171
 30
0.0
 11
292142.34575364128
 21
43873.713817130287
 31
0.0
  0
LINE
  5
50BED
  8
D-STR_構造物外形線_
  6
CONTINUOUS
 62
     1
 10
285426.93811355549
 20
46349.373988910243
 30
0.0
 11
284366.27794177568
 21
45288.713817130527
 31
0.0
  0
LINE
  5
50BEE
  8
D-STR_構造物外形線_
  6
CONTINUOUS
 62
     1
 10
284366.27794177568
 20
45288.713817130527
 30
0.0
 11
285780.49150414887
 21
43874.500254757433
 31
0.0
  0
LINE
  5
50BEF
  8
D-STR_構造物外形線_
  6
CONTINUOUS
 62
     1
 10
285780.49150414887
 20
43874.500254757433
 30
0.0
 11
286841.15167592879
 21
44935.160426537179
 31
0.0
  0
LINE
  5
50BF0
  8
D-STR_構造物外形線_
  6
CONTINUOUS
 62
     1
 10
286841.15167592879
 20
44935.160426537179
 30
0.0
 11
285426.93811355549
 21
46349.373988910243
 31
0.0
  0
LINE
  5
50BF1
  8
D-STR_構造物外形線_
  6
CONTINUOUS
 62
     1
 10
287546.9381135556
 20
46349.373988910243
 30
0.0
 11
286486.27794177568
 21
45288.713817130527
 31
0.0
  0
LINE
  5
50BF2
  8
D-STR_構造物外形線_
  6
CONTINUOUS
 62
     1
 10
286486.27794177568
 20
45288.713817130527
 30
0.0
 11
287900.49150414881
 21
43874.500254757433
 31
0.0
  0
LINE
  5
50BF3
  8
D-STR_構造物外形線_
  6
CONTINUOUS
 62
     1
 10
287900.49150414881
 20
43874.500254757433
 30
0.0
 11
288961.15167592879
 21
44935.160426537179
 31
0.0
  0
LINE
  5
50BF4
  8
D-STR_構造物外形線_
  6
CONTINUOUS
 62
     1
 10
288961.15167592879
 20
44935.160426537179
 30
0.0
 11
287546.9381135556
 21
46349.373988910243
 31
0.0
  0
LINE
  5
50BF5
  8
D-STR_構造物外形線_
  6
CONTINUOUS
 62
     1
 10
289666.9381135556
 20
46349.373988910243
 30
0.0
 11
288606.27794177562
 21
45288.713817130527
 31
0.0
  0
LINE
  5
50BF6
  8
D-STR_構造物外形線_
  6
CONTINUOUS
 62
     1
 10
288606.27794177562
 20
45288.713817130527
 30
0.0
 11
290020.49150414881
 21
43874.500254757433
 31
0.0
  0
LINE
  5
50BF7
  8
D-STR_構造物外形線_
  6
CONTINUOUS
 62
     1
 10
290020.49150414881
 20
43874.500254757433
 30
0.0
 11
291081.15167592879
 21
44935.160426537179
 31
0.0
  0
LINE
  5
50BF8
  8
D-STR_構造物外形線_
  6
CONTINUOUS
 62
     1
 10
291081.15167592879
 20
44935.160426537179
 30
0.0
 11
289666.9381135556
 21
46349.373988910243
 31
0.0
  0
LINE
  5
50BF9
  8
D-STR_構造物外形線_
  6
CONTINUOUS
 62
     1
 10
291786.9381135556
 20
46349.373988910243
 30
0.0
 11
290726.27794177562
 21
45288.713817130527
 31
0.0
  0
LINE
  5
50BFA
  8
D-STR_構造物外形線_
  6
CONTINUOUS
 62
     1
 10
290726.27794177562
 20
45288.713817130527
 30
0.0
 11
292140.49150414887
 21
43874.500254757433
 31
0.0
  0
LINE
  5
50BFB
  8
D-STR_構造物外形線_
  6
CONTINUOUS
 62
     1
 10
292140.49150414887
 20
43874.500254757433
 30
0.0
 11
293201.15167592868
 21
44935.160426537179
 31
0.0
  0
LINE
  5
50BFC
  8
D-STR_構造物外形線_
  6
CONTINUOUS
 62
     1
 10
293201.15167592868
 20
44935.160426537179
 30
0.0
 11
291786.9381135556
 21
46349.373988910243
 31
0.0
  0
LINE
  5
50C0F
  8
D-STR_構造物外形線_
  6
CONTINUOUS
 62
     1
 10
287900.36523830181
 20
37465.946864163881
 30
0.0
 11
290020.36523830181
 21
37465.946864163881
 31
0.0
  0
LINE
  5
50C10
  8
D-STR_構造物外形線_
  6
CONTINUOUS
 62
     1
 10
287900.36523830181
 20
37465.946864163881
 30
0.0
 11
287900.36523830181
 21
38215.946864163911
 31
0.0
  0
LINE
  5
50C11
  8
D-STR_構造物外形線_
  6
CONTINUOUS
 62
     1
 10
287900.36523830181
 20
38215.946864163881
 30
0.0
 11
288960.36523830181
 21
39275.946864163881
 31
0.0
  0
LINE
  5
50C12
  8
D-STR_構造物外形線_
  6
CONTINUOUS
 62
     1
 10
288960.36523830181
 20
39275.946864163881
 30
0.0
 11
290020.36523830181
 21
38215.946864163881
 31
0.0
  0
LINE
  5
50C13
  8
D-STR_構造物外形線_
  6
CONTINUOUS
 62
     1
 10
290020.36523830192
 20
38215.946864163852
 30
0.0
 11
290020.36523830181
 21
37465.946864163881
 31
0.0
  0
LINE
  5
50C15
  8
D-STR_構造物外形線_
  6
CONTINUOUS
 62
     1
 10
290020.36523830192
 20
37465.946864163889
 30
0.0
 11
292140.36523830198
 21
37465.946864163889
 31
0.0
  0
LINE
  5
50C16
  8
D-STR_構造物外形線_
  6
CONTINUOUS
 62
     1
 10
290020.36523830192
 20
37465.946864163889
 30
0.0
 11
290020.36523830192
 21
38215.946864163918
 31
0.0
  0
LINE
  5
50C17
  8
D-STR_構造物外形線_
  6
CONTINUOUS
 62
     1
 10
290020.36523830181
 20
38215.946864163889
 30
0.0
 11
291080.36523830198
 21
39275.946864163889
 31
0.0
  0
LINE
  5
50C18
  8
D-STR_構造物外形線_
  6
CONTINUOUS
 62
     1
 10
291080.36523830198
 20
39275.946864163889
 30
0.0
 11
292140.36523830198
 21
38215.946864163889
 31
0.0
  0
LINE
  5
50C19
  8
D-STR_構造物外形線_
  6
CONTINUOUS
 62
     1
 10
292140.36523830198
 20
38215.94686416386
 30
0.0
 11
292140.36523830198
 21
37465.946864163889
 31
0.0
  0
LINE
  5
50C1B
  8
D-STR_構造物外形線_
  6
CONTINUOUS
 62
     1
 10
292140.36523830198
 20
37465.946864163889
 30
0.0
 11
293700.36523830192
 21
37465.946864163889
 31
0.0
  0
LINE
  5
50C1C
  8
D-STR_構造物外形線_
  6
CONTINUOUS
 62
     1
 10
293700.36523830192
 20
37465.946864163889
 30
0.0
 11
293700.36523830192
 21
39275.946864163881
 31
0.0
  0
LINE
  5
50C1D
  8
D-STR_構造物外形線_
  6
CONTINUOUS
 62
     1
 10
292140.36523830198
 20
37465.946864163889
 30
0.0
 11
292140.36523830198
 21
38215.946864163889
 31
0.0
  0
LINE
  5
50C1E
  8
D-STR_構造物外形線_
  6
CONTINUOUS
 62
     1
 10
292140.36523830198
 20
38215.946864163889
 30
0.0
 11
293200.36523830181
 21
39275.946864163889
 31
0.0
  0
LINE
  5
50C1F
  8
D-STR_構造物外形線_
  6
CONTINUOUS
 62
     1
 10
293200.36523830181
 20
39275.946864163889
 30
0.0
 11
293700.36523830192
 21
39275.946864163889
 31
0.0
  0
LINE
  5
50C21
  8
D-STR_構造物外形線_
  6
CONTINUOUS
 62
     1
 10
293700.36523830192
 20
42105.946864163889
 30
0.0
 11
293700.36523830192
 21
39275.946864163889
 31
0.0
  0
LINE
  5
50C22
  8
D-STR_構造物外形線_
  6
CONTINUOUS
 62
     1
 10
293700.36523830192
 20
42105.946864163889
 30
0.0
 11
293200.36523830181
 21
42105.946864163889
 31
0.0
  0
LINE
  5
50C23
  8
D-STR_構造物外形線_
  6
CONTINUOUS
 62
     1
 10
293200.36523830181
 20
42105.946864163889
 30
0.0
 11
291785.36523830192
 21
40690.946864163889
 31
0.0
  0
LINE
  5
50C24
  8
D-STR_構造物外形線_
  6
CONTINUOUS
 62
     1
 10
291785.36523830192
 20
40690.946864163889
 30
0.0
 11
293200.36523830181
 21
39275.946864163889
 31
0.0
  0
LINE
  5
50C25
  8
D-STR_構造物外形線_
  6
CONTINUOUS
 62
     1
 10
293200.36523830181
 20
39275.946864163889
 30
0.0
 11
293700.36523830192
 21
39275.946864163889
 31
0.0
  0
LINE
  5
50C26
  8
D-STR_構造物外形線_
  6
CONTINUOUS
 62
     1
 10
293700.36523830192
 20
44935.946864163889
 30
0.0
 11
293700.36523830192
 21
42105.946864163889
 31
0.0
  0
LINE
  5
50C27
  8
D-STR_構造物外形線_
  6
CONTINUOUS
 62
     1
 10
293700.36523830192
 20
44935.946864163889
 30
0.0
 11
293200.36523830198
 21
44935.946864163889
 31
0.0
  0
LINE
  5
50C28
  8
D-STR_構造物外形線_
  6
CONTINUOUS
 62
     1
 10
293200.36523830198
 20
44935.946864163889
 30
0.0
 11
291785.36523830192
 21
43520.946864163881
 31
0.0
  0
LINE
  5
50C29
  8
D-STR_構造物外形線_
  6
CONTINUOUS
 62
     1
 10
291785.36523830192
 20
43520.946864163881
 30
0.0
 11
293200.36523830198
 21
42105.946864163889
 31
0.0
  0
LINE
  5
50C2A
  8
D-STR_構造物外形線_
  6
CONTINUOUS
 62
     1
 10
293200.36523830198
 20
42105.946864163889
 30
0.0
 11
293700.36523830192
 21
42105.946864163889
 31
0.0
  0
LINE
  5
50C2E
  8
D-STR_構造物外形線_
  6
CONTINUOUS
 62
     1
 10
293700.36523830192
 20
44935.946864163889
 30
0.0
 11
293700.36523830192
 21
47100.946864163889
 31
0.0
  0
LINE
  5
50C2F
  8
D-STR_構造物外形線_
  6
CONTINUOUS
 62
     1
 10
293700.36523830192
 20
47100.946864163889
 30
0.0
 11
291785.36523830192
 21
47100.946864163889
 31
0.0
  0
LINE
  5
50C30
  8
D-STR_構造物外形線_
  6
CONTINUOUS
 62
     1
 10
293700.36523830192
 20
44935.946864163889
 30
0.0
 11
293200.36523830198
 21
44935.946864163889
 31
0.0
  0
LINE
  5
50C31
  8
D-STR_構造物外形線_
  6
CONTINUOUS
 62
     1
 10
293200.36523830198
 20
44935.946864163889
 30
0.0
 11
291785.36523830192
 21
46350.946864163889
 31
0.0
  0
LINE
  5
50C32
  8
D-STR_構造物外形線_
  6
CONTINUOUS
 62
     1
 10
291785.36523830192
 20
46350.946864163889
 30
0.0
 11
291785.36523830192
 21
47100.946864163889
 31
0.0
  0
LINE
  5
50C34
  8
D-STR_構造物外形線_
  6
CONTINUOUS
 62
     1
 10
285425.36523830198
 20
47100.946864163743
 30
0.0
 11
287545.36523830192
 21
47100.946864163743
 31
0.0
  0
LINE
  5
50C35
  8
D-STR_構造物外形線_
  6
CONTINUOUS
 62
     1
 10
285425.36523830198
 20
47100.946864163743
 30
0.0
 11
285425.36523830198
 21
46350.9468641637
 31
0.0
  0
LINE
  5
50C36
  8
D-STR_構造物外形線_
  6
CONTINUOUS
 62
     1
 10
285425.36523830192
 20
46350.946864163743
 30
0.0
 11
286485.36523830198
 21
45290.946864163743
 31
0.0
  0
LINE
  5
50C37
  8
D-STR_構造物外形線_
  6
CONTINUOUS
 62
     1
 10
286485.36523830198
 20
45290.946864163743
 30
0.0
 11
287545.36523830192
 21
46350.946864163743
 31
0.0
  0
LINE
  5
50C38
  8
D-STR_構造物外形線_
  6
CONTINUOUS
 62
     1
 10
287545.36523830192
 20
46350.94686416375
 30
0.0
 11
287545.36523830192
 21
47100.946864163743
 31
0.0
  0
LINE
  5
50C39
  8
D-STR_構造物外形線_
  6
CONTINUOUS
 62
     1
 10
287545.36523830192
 20
47100.946864163903
 30
0.0
 11
289665.36523830192
 21
47100.946864163903
 31
0.0
  0
LINE
  5
50C3A
  8
D-STR_構造物外形線_
  6
CONTINUOUS
 62
     1
 10
287545.36523830192
 20
47100.946864163903
 30
0.0
 11
287545.36523830192
 21
46350.946864163867
 31
0.0
  0
LINE
  5
50C3B
  8
D-STR_構造物外形線_
  6
CONTINUOUS
 62
     1
 10
287545.36523830181
 20
46350.946864163889
 30
0.0
 11
288605.36523830198
 21
45290.946864163903
 31
0.0
  0
LINE
  5
50C3C
  8
D-STR_構造物外形線_
  6
CONTINUOUS
 62
     1
 10
288605.36523830198
 20
45290.946864163903
 30
0.0
 11
289665.36523830192
 21
46350.946864163889
 31
0.0
  0
LINE
  5
50C3D
  8
D-STR_構造物外形線_
  6
CONTINUOUS
 62
     1
 10
289665.36523830192
 20
46350.946864163911
 30
0.0
 11
289665.36523830192
 21
47100.946864163903
 31
0.0
  0
LINE
  5
50C3E
  8
D-STR_構造物外形線_
  6
CONTINUOUS
 62
     1
 10
289665.36523830192
 20
47100.946864163889
 30
0.0
 11
291785.36523830192
 21
47100.946864163889
 31
0.0
  0
LINE
  5
50C3F
  8
D-STR_構造物外形線_
  6
CONTINUOUS
 62
     1
 10
289665.36523830192
 20
47100.946864163889
 30
0.0
 11
289665.36523830192
 21
46350.946864163867
 31
0.0
  0
LINE
  5
50C40
  8
D-STR_構造物外形線_
  6
CONTINUOUS
 62
     1
 10
289665.36523830181
 20
46350.946864163889
 30
0.0
 11
290725.36523830192
 21
45290.946864163889
 31
0.0
  0
LINE
  5
50C41
  8
D-STR_構造物外形線_
  6
CONTINUOUS
 62
     1
 10
290725.36523830192
 20
45290.946864163889
 30
0.0
 11
291785.36523830192
 21
46350.946864163889
 31
0.0
  0
LINE
  5
50C42
  8
D-STR_構造物外形線_
  6
CONTINUOUS
 62
     1
 10
291785.36523830198
 20
46350.946864163911
 30
0.0
 11
291785.36523830192
 21
47100.946864163889
 31
0.0
  0
LINE
  5
50C46
  8
D-STR_構造物外形線_
  6
CONTINUOUS
 62
     1
 10
285425.36523830192
 20
47100.94686416402
 30
0.0
 11
283865.36523830181
 21
47100.94686416402
 31
0.0
  0
LINE
  5
50C47
  8
D-STR_構造物外形線_
  6
CONTINUOUS
 62
     1
 10
283865.36523830181
 20
47100.94686416402
 30
0.0
 11
283865.36523830181
 21
45290.946864164027
 31
0.0
  0
LINE
  5
50C48
  8
D-STR_構造物外形線_
  6
CONTINUOUS
 62
     1
 10
285425.36523830192
 20
47100.94686416402
 30
0.0
 11
285425.36523830192
 21
46350.946864164027
 31
0.0
  0
LINE
  5
50C49
  8
D-STR_構造物外形線_
  6
CONTINUOUS
 62
     1
 10
285425.36523830192
 20
46350.946864164027
 30
0.0
 11
284365.36523830181
 21
45290.94686416402
 31
0.0
  0
LINE
  5
50C4A
  8
D-STR_構造物外形線_
  6
CONTINUOUS
 62
     1
 10
284365.36523830181
 20
45290.94686416402
 30
0.0
 11
283865.36523830181
 21
45290.94686416402
 31
0.0
  0
TEXT
  5
50C4C
  8
D-TTL-TXT_文字_
  6
CONTINUOUS
 62
     7
 10
284171.70773372502
 20
37658.431692944483
 30
0.0
 40
350.0
  1
隅大
  7
ＭＳ_ゴシック
1001
WACOM_STRING
1002
{
1070
   301
1002
}
1001
ACAD
1000
MTEXTBEGIN
1070
    73
1070
     1
1070
    44
1040
1.0
1070
    74
1070
     0
1000
MTEXTEND
1000
MTEXTBEGIN
1070
    73
1070
     1
1070
    44
1040
1.0
1070
    74
1070
     0
1000
MTEXTEND
  0
TEXT
  5
50C4D
  8
D-TTL-TXT_文字_
  6
CONTINUOUS
 62
     7
 10
285944.02898128447
 20
37658.431692944483
 30
0.0
 40
350.0
  1
根石・天端
 41
0.8
  7
ＭＳ_ゴシック
1001
WACOM_STRING
1002
{
1070
   301
1002
}
1001
ACAD
1000
MTEXTBEGIN
1070
    73
1070
     1
1070
    44
1040
1.0
1070
    74
1070
     0
1000
MTEXTEND
1000
MTEXTBEGIN
1070
    73
1070
     1
1070
    44
1040
1.0
1070
    74
1070
     0
1000
MTEXTEND
  0
TEXT
  5
50C50
  8
D-TTL-TXT_文字_
  6
CONTINUOUS
 62
     7
 10
292643.71739173238
 20
37759.157770205253
 30
0.0
 40
350.0
  1
隅小
  7
ＭＳ_ゴシック
1001
WACOM_STRING
1002
{
1070
   301
1002
}
1001
ACAD
1000
MTEXTBEGIN
1070
    73
1070
     1
1070
    44
1040
1.0
1070
    74
1070
     0
1000
MTEXTEND
1000
MTEXTBEGIN
1070
    73
1070
     1
1070
    44
1040
1.0
1070
    74
1070
     0
1000
MTEXTEND
  0
TEXT
  5
50C51
  8
D-TTL-TXT_文字_
  6
CONTINUOUS
 62
     7
 10
284171.7077337252
 20
41012.178355196178
 30
0.0
 40
350.0
  1
側石
  7
ＭＳ_ゴシック
1001
WACOM_STRING
1002
{
1070
   301
1002
}
1001
ACAD
1000
MTEXTBEGIN
1070
    73
1070
     1
1070
    44
1040
1.0
1070
    74
1070
     0
1000
MTEXTEND
1000
MTEXTBEGIN
1070
    73
1070
     1
1070
    44
1040
1.0
1070
    74
1070
     0
1000
MTEXTEND
  0
TEXT
  5
50C52
  8
D-TTL-TXT_文字_
  6
CONTINUOUS
 62
     7
 10
284171.7077337252
 20
43842.178355196178
 30
0.0
 40
350.0
  1
側石
  7
ＭＳ_ゴシック
1001
WACOM_STRING
1002
{
1070
   301
1002
}
1001
ACAD
1000
MTEXTBEGIN
1070
    73
1070
     1
1070
    44
1040
1.0
1070
    74
1070
     0
1000
MTEXTEND
1000
MTEXTBEGIN
1070
    73
1070
     1
1070
    44
1040
1.0
1070
    74
1070
     0
1000
MTEXTEND
  0
TEXT
  5
50C53
  8
D-TTL-TXT_文字_
  6
CONTINUOUS
 62
     7
 10
284171.7077337252
 20
46459.339446772508
 30
0.0
 40
350.0
  1
隅小
  7
ＭＳ_ゴシック
1001
WACOM_STRING
1002
{
1070
   301
1002
}
1001
ACAD
1000
MTEXTBEGIN
1070
    73
1070
     1
1070
    44
1040
1.0
1070
    74
1070
     0
1000
MTEXTEND
1000
MTEXTBEGIN
1070
    73
1070
     1
1070
    44
1040
1.0
1070
    74
1070
     0
1000
MTEXTEND
  0
TEXT
  5
50C54
  8
D-TTL-TXT_文字_
  6
CONTINUOUS
 62
     7
 10
292533.29935930582
 20
46120.189061119963
 30
0.0
 40
350.0
  1
隅大
  7
ＭＳ_ゴシック
1001
WACOM_STRING
1002
{
1070
   301
1002
}
1001
ACAD
1000
MTEXTBEGIN
1070
    73
1070
     1
1070
    44
1040
1.0
1070
    74
1070
     0
1000
MTEXTEND
1000
MTEXTBEGIN
1070
    73
1070
     1
1070
    44
1040
1.0
1070
    74
1070
     0
1000
MTEXTEND
  0
TEXT
  5
50C55
  8
D-TTL-TXT_文字_
  6
CONTINUOUS
 62
     7
 10
285584.23018021288
 20
46482.620691251977
 30
0.0
 40
350.0
  1
根石・天端
 41
0.8
  7
ＭＳ_ゴシック
1001
WACOM_STRING
1002
{
1070
   301
1002
}
1001
ACAD
1000
MTEXTBEGIN
1070
    73
1070
     1
1070
    44
1040
1.0
1070
    74
1070
     0
1000
MTEXTEND
1000
MTEXTBEGIN
1070
    73
1070
     1
1070
    44
1040
1.0
1070
    74
1070
     0
1000
MTEXTEND
  0
TEXT
  5
50C58
  8
D-TTL-TXT_文字_
  6
CONTINUOUS
 62
     7
 10
278398.22667274828
 20
45620.189061120123
 30
0.0
 40
350.0
  1
隅大
  7
ＭＳ_ゴシック
1001
WACOM_STRING
1002
{
1070
   301
1002
}
1001
ACAD
1000
MTEXTBEGIN
1070
    73
1070
     1
1070
    44
1040
1.0
1070
    74
1070
     0
1000
MTEXTEND
1000
MTEXTBEGIN
1070
    73
1070
     1
1070
    44
1040
1.0
1070
    74
1070
     0
1000
MTEXTEND
  0
TEXT
  5
50C59
  8
D-TTL-TXT_文字_
  6
CONTINUOUS
 62
     7
 10
271452.07711013011
 20
46181.520936086061
 30
0.0
 40
350.0
  1
根石・天端
 41
0.8
  7
ＭＳ_ゴシック
1001
WACOM_STRING
1002
{
1070
   301
1002
}
1001
ACAD
1000
MTEXTBEGIN
1070
    73
1070
     1
1070
    44
1040
1.0
1070
    74
1070
     0
1000
MTEXTEND
1000
MTEXTBEGIN
1070
    73
1070
     1
1070
    44
1040
1.0
1070
    74
1070
     0
1000
MTEXTEND
  0
LINE
  5
50D84
  8
D-STR-DIM_寸法_
  6
CONTINUOUS
 10
253860.89213814799
 20
23159.005997380769
 30
0.0
 11
252943.3075075011
 21
23159.005997380769
 31
0.0
  0
LINE
  5
50D85
  8
D-STR-DIM_寸法_
  6
CONTINUOUS
 10
254370.89213814799
 20
21409.005997380769
 30
0.0
 11
252943.3075075011
 21
21409.005997380769
 31
0.0
  0
LINE
  5
50D86
  8
D-STR-DIM_寸法_
  6
CONTINUOUS
 10
253043.3075075011
 20
23009.005997380758
 30
0.0
 11
253043.3075075011
 21
21559.005997380769
 31
0.0
  0
LINE
  5
50D8A
  8
D-STR-DIM_寸法_
  6
CONTINUOUS
 10
255445.89213814799
 20
23159.005997380769
 30
0.0
 11
255445.89213814799
 21
23923.626261180671
 31
0.0
  0
LINE
  5
50D8B
  8
D-STR-DIM_寸法_
  6
CONTINUOUS
 10
253885.89213814811
 20
23159.005997380769
 30
0.0
 11
253885.89213814811
 21
23923.626261180671
 31
0.0
  0
LINE
  5
50D8C
  8
D-STR-DIM_寸法_
  6
CONTINUOUS
 10
255295.89213814799
 20
23823.626261180689
 30
0.0
 11
254035.89213814811
 21
23823.626261180689
 31
0.0
  0
LINE
  5
50D90
  8
D-STR-DIM_寸法_
  6
CONTINUOUS
 10
261278.67326080939
 20
26183.907431152202
 30
0.0
 11
261278.67326080939
 21
25026.710033583629
 31
0.0
  0
LINE
  5
50D91
  8
D-STR-DIM_寸法_
  6
CONTINUOUS
 10
259528.6732608093
 20
25728.907431152202
 30
0.0
 11
259528.6732608093
 21
25026.710033583629
 31
0.0
  0
LINE
  5
50D92
  8
D-STR-DIM_寸法_
  6
CONTINUOUS
 10
261128.6732608093
 20
25126.710033583629
 30
0.0
 11
259678.67326080939
 21
25126.710033583629
 31
0.0
  0
LINE
  5
50D96
  8
D-STR-DIM_寸法_
  6
CONTINUOUS
 10
259528.6732608093
 20
27563.907431152202
 30
0.0
 11
258662.59572277631
 21
27563.907431152202
 31
0.0
  0
LINE
  5
50D97
  8
D-STR-DIM_寸法_
  6
CONTINUOUS
 10
259528.6732608093
 20
25753.907431152202
 30
0.0
 11
258662.59572277631
 21
25753.907431152202
 31
0.0
  0
LINE
  5
50D98
  8
D-STR-DIM_寸法_
  6
CONTINUOUS
 10
258762.59572277631
 20
27413.907431152202
 30
0.0
 11
258762.59572277631
 21
25903.907431152202
 31
0.0
  0
LINE
  5
50D9C
  8
D-STR-DIM_寸法_
  6
CONTINUOUS
 10
255445.89213814799
 20
25653.907431152202
 30
0.0
 11
255445.89213814799
 21
25026.710033583629
 31
0.0
  0
LINE
  5
50D9D
  8
D-STR-DIM_寸法_
  6
CONTINUOUS
 10
253885.89213814811
 20
25653.907431152202
 30
0.0
 11
253885.89213814811
 21
25026.710033583629
 31
0.0
  0
LINE
  5
50D9E
  8
D-STR-DIM_寸法_
  6
CONTINUOUS
 10
255295.89213814799
 20
25126.710033583629
 30
0.0
 11
254035.89213814811
 21
25126.710033583629
 31
0.0
  0
LINE
  5
50DA2
  8
D-STR-DIM_寸法_
  6
CONTINUOUS
 10
255545.89213814811
 20
27563.90743115218
 30
0.0
 11
256180.47123177769
 21
27563.90743115218
 31
0.0
  0
LINE
  5
50DA3
  8
D-STR-DIM_寸法_
  6
CONTINUOUS
 10
255545.89213814811
 20
25753.907431152202
 30
0.0
 11
256180.47123177769
 21
25753.907431152202
 31
0.0
  0
LINE
  5
50DA4
  8
D-STR-DIM_寸法_
  6
CONTINUOUS
 10
256080.47123177769
 20
27413.907431152191
 30
0.0
 11
256080.47123177769
 21
25903.907431152202
 31
0.0
  0
LINE
  5
50DA8
  8
D-STR-DIM_寸法_
  6
CONTINUOUS
 10
254875.18146002939
 20
27634.618109270839
 30
0.0
 11
254353.8353779446
 21
28155.964191355699
 31
0.0
  0
LINE
  5
50DA9
  8
D-STR-DIM_寸法_
  6
CONTINUOUS
 10
253815.18146002939
 20
26574.618109270839
 30
0.0
 11
253293.83537794449
 21
27095.964191355699
 31
0.0
  0
LINE
  5
50DAA
  8
D-STR-DIM_寸法_
  6
CONTINUOUS
 10
254318.4800388852
 20
27979.187496059069
 30
0.0
 11
253470.61207324109
 21
27131.31953041501
 31
0.0
  0
LINE
  5
50DAE
  8
D-STR-DIM_寸法_
  6
CONTINUOUS
 10
253785.89213814799
 20
26503.907431152202
 30
0.0
 11
252943.3075075011
 21
26503.907431152202
 31
0.0
  0
LINE
  5
50DAF
  8
D-STR-DIM_寸法_
  6
CONTINUOUS
 10
253785.89213814799
 20
25753.907431152202
 30
0.0
 11
252943.3075075011
 21
25753.907431152202
 31
0.0
  0
LINE
  5
50DB0
  8
D-STR-DIM_寸法_
  6
CONTINUOUS
 10
253043.3075075011
 20
26353.907431152202
 30
0.0
 11
253043.3075075011
 21
25903.907431152202
 31
0.0
  0
LINE
  5
50DB4
  8
D-STR-DIM_寸法_
  6
CONTINUOUS
 10
255445.89213814799
 20
27663.907431152191
 30
0.0
 11
255445.89213814799
 21
28012.00799612515
 31
0.0
  0
LINE
  5
50DB5
  8
D-STR-DIM_寸法_
  6
CONTINUOUS
 10
254945.89213814799
 20
27663.907431152202
 30
0.0
 11
254945.89213814799
 21
28012.00799612515
 31
0.0
  0
LINE
  5
50DB6
  8
D-STR-DIM_寸法_
  6
CONTINUOUS
 10
255295.89213814799
 20
27912.00799612515
 30
0.0
 11
255095.89213814799
 21
27912.00799612515
 31
0.0
  0
LINE
  5
50DBA
  8
D-STR-DIM_寸法_
  6
CONTINUOUS
 10
253860.89213814799
 20
34317.650808941653
 30
0.0
 11
252943.3075075011
 21
34317.650808941653
 31
0.0
  0
LINE
  5
50DBB
  8
D-STR-DIM_寸法_
  6
CONTINUOUS
 10
254385.89213814811
 20
32567.650808941649
 30
0.0
 11
252943.3075075011
 21
32567.650808941649
 31
0.0
  0
LINE
  5
50DBC
  8
D-STR-DIM_寸法_
  6
CONTINUOUS
 10
253043.3075075011
 20
34167.650808941638
 30
0.0
 11
253043.3075075011
 21
32717.650808941649
 31
0.0
  0
LINE
  5
50DC0
  8
D-STR-DIM_寸法_
  6
CONTINUOUS
 10
261278.67326080939
 20
37823.446864164041
 30
0.0
 11
261278.67326080939
 21
36472.979924693936
 31
0.0
  0
LINE
  5
50DC1
  8
D-STR-DIM_寸法_
  6
CONTINUOUS
 10
259528.6732608093
 20
37190.946864164041
 30
0.0
 11
259528.6732608093
 21
36472.979924693936
 31
0.0
  0
LINE
  5
50DC2
  8
D-STR-DIM_寸法_
  6
CONTINUOUS
 10
261128.6732608093
 20
36572.979924693936
 30
0.0
 11
259678.67326080939
 21
36572.979924693936
 31
0.0
  0
LINE
  5
50DC6
  8
D-STR-DIM_寸法_
  6
CONTINUOUS
 10
259528.6732608093
 20
39380.946864164041
 30
0.0
 11
258598.1793330349
 21
39380.946864164041
 31
0.0
  0
LINE
  5
50DC7
  8
D-STR-DIM_寸法_
  6
CONTINUOUS
 10
259528.6732608093
 20
37215.946864164041
 30
0.0
 11
258598.1793330349
 21
37215.946864164041
 31
0.0
  0
LINE
  5
50DC8
  8
D-STR-DIM_寸法_
  6
CONTINUOUS
 10
258698.1793330349
 20
39230.946864164041
 30
0.0
 11
258698.1793330349
 21
37365.946864164041
 31
0.0
  0
LINE
  5
50DCC
  8
D-STR-DIM_寸法_
  6
CONTINUOUS
 10
255800.89213814799
 20
37115.946864164041
 30
0.0
 11
255800.89213814799
 21
36472.979924693936
 31
0.0
  0
LINE
  5
50DCD
  8
D-STR-DIM_寸法_
  6
CONTINUOUS
 10
253885.89213814811
 20
37115.946864164027
 30
0.0
 11
253885.89213814811
 21
36472.979924693936
 31
0.0
  0
LINE
  5
50DCE
  8
D-STR-DIM_寸法_
  6
CONTINUOUS
 10
255650.89213814799
 20
36572.979924693936
 30
0.0
 11
254035.89213814811
 21
36572.979924693936
 31
0.0
  0
LINE
  5
50DD2
  8
D-STR-DIM_寸法_
  6
CONTINUOUS
 10
255900.89213814799
 20
37215.946864164041
 30
0.0
 11
256587.9061448196
 21
37215.946864164041
 31
0.0
  0
LINE
  5
50DD3
  8
D-STR-DIM_寸法_
  6
CONTINUOUS
 10
255900.89213814799
 20
37965.946864164041
 30
0.0
 11
256587.9061448196
 21
37965.946864164041
 31
0.0
  0
LINE
  5
50DD4
  8
D-STR-DIM_寸法_
  6
CONTINUOUS
 10
256487.9061448196
 20
37365.946864164041
 30
0.0
 11
256487.9061448196
 21
37815.946864164041
 31
0.0
  0
LINE
  5
50DD8
  8
D-STR-DIM_寸法_
  6
CONTINUOUS
 10
255871.60281626671
 20
38036.657542282723
 30
0.0
 11
256357.42874075161
 21
38522.483466767502
 31
0.0
  0
LINE
  5
50DD9
  8
D-STR-DIM_寸法_
  6
CONTINUOUS
 10
254456.60281626659
 20
39451.657542282694
 30
0.0
 11
254942.42874075149
 21
39937.483466767517
 31
0.0
  0
LINE
  5
50DDA
  8
D-STR-DIM_寸法_
  6
CONTINUOUS
 10
256180.65204545489
 20
38557.838805826817
 30
0.0
 11
254977.78407981081
 21
39760.706771470846
 31
0.0
  0
LINE
  5
50DDE
  8
D-STR-DIM_寸法_
  6
CONTINUOUS
 10
253885.89213814811
 20
39480.946864164041
 30
0.0
 11
253885.89213814811
 21
40110.90569108323
 31
0.0
  0
LINE
  5
50DDF
  8
D-STR-DIM_寸法_
  6
CONTINUOUS
 10
254385.89213814811
 20
39480.946864164041
 30
0.0
 11
254385.89213814811
 21
40110.90569108323
 31
0.0
  0
LINE
  5
50DE0
  8
D-STR-DIM_寸法_
  6
CONTINUOUS
 10
254035.89213814811
 20
40010.905691083208
 30
0.0
 11
254235.89213814811
 21
40010.905691083208
 31
0.0
  0
LINE
  5
50DE4
  8
D-STR-DIM_寸法_
  6
CONTINUOUS
 10
253785.89213814799
 20
39380.946864164041
 30
0.0
 11
252943.3075075011
 21
39380.946864164041
 31
0.0
  0
LINE
  5
50DE5
  8
D-STR-DIM_寸法_
  6
CONTINUOUS
 10
253785.89213814799
 20
37215.946864164041
 30
0.0
 11
252943.3075075011
 21
37215.946864164041
 31
0.0
  0
LINE
  5
50DE6
  8
D-STR-DIM_寸法_
  6
CONTINUOUS
 10
253043.3075075011
 20
39230.946864164041
 30
0.0
 11
253043.3075075011
 21
37365.946864164041
 31
0.0
  0
LINE
  5
50DEA
  8
D-STR-DIM_寸法_
  6
CONTINUOUS
 10
233279.2707741718
 20
23159.005997380871
 30
0.0
 11
233279.2707741718
 21
23918.02743672422
 31
0.0
  0
LINE
  5
50DEB
  8
D-STR-DIM_寸法_
  6
CONTINUOUS
 10
231719.27077417189
 20
23159.005997380871
 30
0.0
 11
231719.27077417189
 21
23918.02743672422
 31
0.0
  0
LINE
  5
50DEC
  8
D-STR-DIM_寸法_
  6
CONTINUOUS
 10
233129.2707741718
 20
23818.02743672422
 30
0.0
 11
231869.27077417189
 21
23818.02743672422
 31
0.0
  0
LINE
  5
50DF0
  8
D-STR-DIM_寸法_
  6
CONTINUOUS
 10
231694.27077417189
 20
23159.005997380871
 30
0.0
 11
230750.0432598145
 21
23159.005997380871
 31
0.0
  0
LINE
  5
50DF1
  8
D-STR-DIM_寸法_
  6
CONTINUOUS
 10
232204.27077417189
 20
21409.005997380871
 30
0.0
 11
230750.0432598145
 21
21409.005997380871
 31
0.0
  0
LINE
  5
50DF2
  8
D-STR-DIM_寸法_
  6
CONTINUOUS
 10
230850.0432598145
 20
23009.005997380871
 30
0.0
 11
230850.0432598145
 21
21559.005997380871
 31
0.0
  0
LINE
  5
50DF6
  8
D-STR-DIM_寸法_
  6
CONTINUOUS
 10
237896.3854701652
 20
26308.907431152202
 30
0.0
 11
237896.3854701652
 21
25123.57459795941
 31
0.0
  0
LINE
  5
50DF7
  8
D-STR-DIM_寸法_
  6
CONTINUOUS
 10
236146.38547016529
 20
25903.907431152202
 30
0.0
 11
236146.38547016529
 21
25123.57459795941
 31
0.0
  0
LINE
  5
50DF8
  8
D-STR-DIM_寸法_
  6
CONTINUOUS
 10
237746.38547016541
 20
25223.57459795941
 30
0.0
 11
236296.3854701652
 21
25223.57459795941
 31
0.0
  0
LINE
  5
50DFC
  8
D-STR-DIM_寸法_
  6
CONTINUOUS
 10
236146.38547016529
 20
27563.907431152202
 30
0.0
 11
235272.30277288239
 21
27563.907431152202
 31
0.0
  0
LINE
  5
50DFD
  8
D-STR-DIM_寸法_
  6
CONTINUOUS
 10
236146.38547016529
 20
26003.907431152202
 30
0.0
 11
235272.30277288239
 21
26003.907431152202
 31
0.0
  0
LINE
  5
50DFE
  8
D-STR-DIM_寸法_
  6
CONTINUOUS
 10
235372.30277288239
 20
27413.907431152202
 30
0.0
 11
235372.30277288239
 21
26153.907431152202
 31
0.0
  0
LINE
  5
50E02
  8
D-STR-DIM_寸法_
  6
CONTINUOUS
 10
233379.27077417189
 20
27563.907431152202
 30
0.0
 11
234148.53781056721
 21
27563.907431152202
 31
0.0
  0
LINE
  5
50E03
  8
D-STR-DIM_寸法_
  6
CONTINUOUS
 10
233379.27077417189
 20
26003.907431152202
 30
0.0
 11
234148.53781056721
 21
26003.907431152202
 31
0.0
  0
LINE
  5
50E04
  8
D-STR-DIM_寸法_
  6
CONTINUOUS
 10
234048.53781056721
 20
27413.907431152202
 30
0.0
 11
234048.53781056721
 21
26153.907431152202
 31
0.0
  0
LINE
  5
50E08
  8
D-STR-DIM_寸法_
  6
CONTINUOUS
 10
233279.2707741718
 20
25903.907431152202
 30
0.0
 11
233279.2707741718
 21
25123.57459795941
 31
0.0
  0
LINE
  5
50E09
  8
D-STR-DIM_寸法_
  6
CONTINUOUS
 10
231719.27077417189
 20
25903.907431152202
 30
0.0
 11
231719.27077417189
 21
25123.57459795941
 31
0.0
  0
LINE
  5
50E0A
  8
D-STR-DIM_寸法_
  6
CONTINUOUS
 10
233129.2707741718
 20
25223.57459795941
 30
0.0
 11
231869.27077417189
 21
25223.57459795941
 31
0.0
  0
LINE
  5
50E0E
  8
D-STR-DIM_寸法_
  6
CONTINUOUS
 10
233704.98145229061
 20
38036.657542282701
 30
0.0
 11
234183.6880089872
 21
38515.364098979349
 31
0.0
  0
LINE
  5
50E0F
  8
D-STR-DIM_寸法_
  6
CONTINUOUS
 10
232289.98145229061
 20
39451.657542282701
 30
0.0
 11
232768.6880089872
 21
39930.364098979349
 31
0.0
  0
LINE
  5
50E10
  8
D-STR-DIM_寸法_
  6
CONTINUOUS
 10
234006.91131369059
 20
38550.719438038672
 30
0.0
 11
232804.04334804651
 21
39753.587403682708
 31
0.0
  0
LINE
  5
50E14
  8
D-STR-DIM_寸法_
  6
CONTINUOUS
 10
232708.5600960532
 20
27634.618109270839
 30
0.0
 11
232332.0974208994
 21
28011.08078442467
 31
0.0
  0
LINE
  5
50E15
  8
D-STR-DIM_寸法_
  6
CONTINUOUS
 10
231648.56009605329
 20
26574.618109270839
 30
0.0
 11
231272.0974208994
 21
26951.08078442467
 31
0.0
  0
LINE
  5
50E16
  8
D-STR-DIM_寸法_
  6
CONTINUOUS
 10
232296.74208184009
 20
27834.304089128029
 30
0.0
 11
231448.87411619609
 21
26986.436123483989
 31
0.0
  0
LINE
  5
50E1A
  8
D-STR-DIM_寸法_
  6
CONTINUOUS
 10
231619.27077417189
 20
26503.907431152202
 30
0.0
 11
230750.0432598145
 21
26503.907431152202
 31
0.0
  0
LINE
  5
50E1B
  8
D-STR-DIM_寸法_
  6
CONTINUOUS
 10
231619.27077417189
 20
26003.907431152202
 30
0.0
 11
230750.0432598145
 21
26003.907431152202
 31
0.0
  0
LINE
  5
50E1C
  8
D-STR-DIM_寸法_
  6
CONTINUOUS
 10
230850.0432598145
 20
26353.907431152202
 30
0.0
 11
230850.0432598145
 21
26153.907431152202
 31
0.0
  0
LINE
  5
50E20
  8
D-STR-DIM_寸法_
  6
CONTINUOUS
 10
231694.27077417189
 20
34317.650808941653
 30
0.0
 11
230648.59435117451
 21
34317.650808941653
 31
0.0
  0
LINE
  5
50E21
  8
D-STR-DIM_寸法_
  6
CONTINUOUS
 10
231994.27077417201
 20
32567.650808941649
 30
0.0
 11
230648.59435117451
 21
32567.650808941649
 31
0.0
  0
LINE
  5
50E22
  8
D-STR-DIM_寸法_
  6
CONTINUOUS
 10
230748.5943511746
 20
34167.650808941638
 30
0.0
 11
230748.5943511746
 21
32717.650808941638
 31
0.0
  0
LINE
  5
50E26
  8
D-STR-DIM_寸法_
  6
CONTINUOUS
 10
233634.27077417189
 20
34317.650808941653
 30
0.0
 11
233634.27077417189
 21
35281.43834856496
 31
0.0
  0
LINE
  5
50E27
  8
D-STR-DIM_寸法_
  6
CONTINUOUS
 10
231719.27077417189
 20
34317.650808941653
 30
0.0
 11
231719.27077417189
 21
35281.43834856496
 31
0.0
  0
LINE
  5
50E28
  8
D-STR-DIM_寸法_
  6
CONTINUOUS
 10
233484.27077417189
 20
35181.43834856496
 30
0.0
 11
231869.27077417189
 21
35181.43834856496
 31
0.0
  0
LINE
  5
50E2C
  8
D-STR-DIM_寸法_
  6
CONTINUOUS
 10
236146.38547016529
 20
39380.946864164041
 30
0.0
 11
235346.13486408221
 21
39380.946864164041
 31
0.0
  0
LINE
  5
50E2D
  8
D-STR-DIM_寸法_
  6
CONTINUOUS
 10
236146.38547016529
 20
37465.946864164063
 30
0.0
 11
235346.13486408221
 21
37465.946864164063
 31
0.0
  0
LINE
  5
50E2E
  8
D-STR-DIM_寸法_
  6
CONTINUOUS
 10
235446.1348640823
 20
39230.946864164041
 30
0.0
 11
235446.1348640823
 21
37615.946864164063
 31
0.0
  0
LINE
  5
50E32
  8
D-STR-DIM_寸法_
  6
CONTINUOUS
 10
237896.38547016541
 20
37948.446864164041
 30
0.0
 11
237896.38547016541
 21
36472.979924693936
 31
0.0
  0
LINE
  5
50E33
  8
D-STR-DIM_寸法_
  6
CONTINUOUS
 10
236146.38547016529
 20
37440.946864164063
 30
0.0
 11
236146.38547016529
 21
36472.979924693936
 31
0.0
  0
LINE
  5
50E34
  8
D-STR-DIM_寸法_
  6
CONTINUOUS
 10
237746.38547016541
 20
36572.979924693936
 30
0.0
 11
236296.38547016541
 21
36572.979924693936
 31
0.0
  0
LINE
  5
50E38
  8
D-STR-DIM_寸法_
  6
CONTINUOUS
 10
233634.27077417189
 20
37365.946864164041
 30
0.0
 11
233634.27077417189
 21
36472.979924693936
 31
0.0
  0
LINE
  5
50E39
  8
D-STR-DIM_寸法_
  6
CONTINUOUS
 10
231719.27077417189
 20
37365.946864164041
 30
0.0
 11
231719.27077417189
 21
36472.979924693936
 31
0.0
  0
LINE
  5
50E3A
  8
D-STR-DIM_寸法_
  6
CONTINUOUS
 10
233484.27077417189
 20
36572.979924693936
 30
0.0
 11
231869.27077417189
 21
36572.979924693936
 31
0.0
  0
LINE
  5
50E3E
  8
D-STR-DIM_寸法_
  6
CONTINUOUS
 10
233734.27077417189
 20
37965.946864164041
 30
0.0
 11
234286.6738115802
 21
37965.946864164041
 31
0.0
  0
LINE
  5
50E3F
  8
D-STR-DIM_寸法_
  6
CONTINUOUS
 10
233734.27077417189
 20
37465.946864164041
 30
0.0
 11
234286.6738115802
 21
37465.946864164041
 31
0.0
  0
LINE
  5
50E40
  8
D-STR-DIM_寸法_
  6
CONTINUOUS
 10
234186.6738115802
 20
37815.946864164041
 30
0.0
 11
234186.6738115802
 21
37615.946864164041
 31
0.0
  0
LINE
  5
50E44
  8
D-STR-DIM_寸法_
  6
CONTINUOUS
 10
231619.27077417189
 20
39380.946864164041
 30
0.0
 11
230648.59435117451
 21
39380.946864164041
 31
0.0
  0
LINE
  5
50E45
  8
D-STR-DIM_寸法_
  6
CONTINUOUS
 10
231619.27077417189
 20
37465.946864164041
 30
0.0
 11
230648.59435117451
 21
37465.946864164041
 31
0.0
  0
LINE
  5
50E46
  8
D-STR-DIM_寸法_
  6
CONTINUOUS
 10
230748.5943511746
 20
39230.946864164041
 30
0.0
 11
230748.5943511746
 21
37615.946864164041
 31
0.0
  0
LINE
  5
50E4A
  8
D-STR-DIM_寸法_
  6
CONTINUOUS
 10
261278.6732608095
 20
52290.857166271257
 30
0.0
 11
261278.6732608095
 21
51065.79448778338
 31
0.0
  0
LINE
  5
50E4B
  8
D-STR-DIM_寸法_
  6
CONTINUOUS
 10
259528.6732608095
 20
51915.857166271249
 30
0.0
 11
259528.6732608095
 21
51065.79448778338
 31
0.0
  0
LINE
  5
50E4C
  8
D-STR-DIM_寸法_
  6
CONTINUOUS
 10
261128.6732608095
 20
51165.79448778338
 30
0.0
 11
259678.6732608095
 21
51165.79448778338
 31
0.0
  0
LINE
  5
50E50
  8
D-STR-DIM_寸法_
  6
CONTINUOUS
 10
259528.67326080939
 20
53750.857166271249
 30
0.0
 11
258408.5268592716
 21
53750.857166271249
 31
0.0
  0
LINE
  5
50E51
  8
D-STR-DIM_寸法_
  6
CONTINUOUS
 10
259528.6732608095
 20
51940.857166271249
 30
0.0
 11
258408.5268592716
 21
51940.857166271249
 31
0.0
  0
LINE
  5
50E52
  8
D-STR-DIM_寸法_
  6
CONTINUOUS
 10
258508.5268592716
 20
53600.857166271257
 30
0.0
 11
258508.5268592716
 21
52090.857166271249
 31
0.0
  0
LINE
  5
50E56
  8
D-STR-DIM_寸法_
  6
CONTINUOUS
 10
253860.89213814811
 20
49628.124551551613
 30
0.0
 11
252943.3075075011
 21
49628.124551551613
 31
0.0
  0
LINE
  5
50E57
  8
D-STR-DIM_寸法_
  6
CONTINUOUS
 10
254470.89213814811
 20
47878.124551551598
 30
0.0
 11
252943.3075075011
 21
47878.124551551598
 31
0.0
  0
LINE
  5
50E58
  8
D-STR-DIM_寸法_
  6
CONTINUOUS
 10
253043.3075075011
 20
49478.124551551591
 30
0.0
 11
253043.3075075011
 21
48028.124551551598
 31
0.0
  0
LINE
  5
50E5C
  8
D-STR-DIM_寸法_
  6
CONTINUOUS
 10
256005.89213814811
 20
49628.124551551613
 30
0.0
 11
256005.89213814811
 21
50299.951452740352
 31
0.0
  0
LINE
  5
50E5D
  8
D-STR-DIM_寸法_
  6
CONTINUOUS
 10
253885.89213814811
 20
49628.124551551613
 30
0.0
 11
253885.89213814811
 21
50299.951452740352
 31
0.0
  0
LINE
  5
50E5E
  8
D-STR-DIM_寸法_
  6
CONTINUOUS
 10
255855.89213814811
 20
50199.951452740352
 30
0.0
 11
254035.89213814811
 21
50199.951452740352
 31
0.0
  0
LINE
  5
50E62
  8
D-STR-DIM_寸法_
  6
CONTINUOUS
 10
256005.89213814811
 20
51840.857166271271
 30
0.0
 11
256005.89213814811
 21
51065.79448778338
 31
0.0
  0
LINE
  5
50E63
  8
D-STR-DIM_寸法_
  6
CONTINUOUS
 10
253885.89213814819
 20
51840.857166271271
 30
0.0
 11
253885.89213814819
 21
51065.79448778338
 31
0.0
  0
LINE
  5
50E64
  8
D-STR-DIM_寸法_
  6
CONTINUOUS
 10
255855.89213814811
 20
51165.79448778338
 30
0.0
 11
254035.89213814831
 21
51165.79448778338
 31
0.0
  0
LINE
  5
50E68
  8
D-STR-DIM_寸法_
  6
CONTINUOUS
 10
253785.89213814811
 20
52690.857166271278
 30
0.0
 11
252943.3075075011
 21
52690.857166271278
 31
0.0
  0
LINE
  5
50E69
  8
D-STR-DIM_寸法_
  6
CONTINUOUS
 10
253785.89213814811
 20
51940.857166271249
 30
0.0
 11
252943.3075075011
 21
51940.857166271249
 31
0.0
  0
LINE
  5
50E6A
  8
D-STR-DIM_寸法_
  6
CONTINUOUS
 10
253043.3075075011
 20
52540.857166271293
 30
0.0
 11
253043.3075075011
 21
52090.857166271249
 31
0.0
  0
LINE
  5
50E6E
  8
D-STR-DIM_寸法_
  6
CONTINUOUS
 10
256257.50167579079
 20
53750.857166271249
 30
0.0
 11
257269.11121343361
 21
53750.857166271249
 31
0.0
  0
LINE
  5
50E6F
  8
D-STR-DIM_寸法_
  6
CONTINUOUS
 10
256105.89213814811
 20
51940.857166271249
 30
0.0
 11
257269.11121343361
 21
51940.857166271249
 31
0.0
  0
LINE
  5
50E70
  8
D-STR-DIM_寸法_
  6
CONTINUOUS
 10
257169.11121343361
 20
53600.857166271257
 30
0.0
 11
257169.11121343361
 21
52090.857166271249
 31
0.0
  0
LINE
  5
50E74
  8
D-STR-DIM_寸法_
  6
CONTINUOUS
 10
254875.18146002939
 20
53821.567844389909
 30
0.0
 11
254360.8263547355
 21
54335.922949683933
 31
0.0
  0
LINE
  5
50E75
  8
D-STR-DIM_寸法_
  6
CONTINUOUS
 10
253815.18146002939
 20
52761.567844390018
 30
0.0
 11
253300.8263547355
 21
53275.922949684063
 31
0.0
  0
LINE
  5
50E76
  8
D-STR-DIM_寸法_
  6
CONTINUOUS
 10
254325.4710156761
 20
54159.146254387299
 30
0.0
 11
253477.60305003211
 21
53311.278288743371
 31
0.0
  0
LINE
  5
50E7A
  8
D-STR-DIM_寸法_
  6
CONTINUOUS
 10
255800.89213814811
 20
60317.650808941653
 30
0.0
 11
255800.89213814811
 21
60846.866302636103
 31
0.0
  0
LINE
  5
50E7B
  8
D-STR-DIM_寸法_
  6
CONTINUOUS
 10
253885.89213814811
 20
60317.650808941653
 30
0.0
 11
253885.89213814811
 21
60846.866302636103
 31
0.0
  0
LINE
  5
50E7C
  8
D-STR-DIM_寸法_
  6
CONTINUOUS
 10
255650.89213814811
 20
60746.866302636103
 30
0.0
 11
254035.89213814811
 21
60746.866302636103
 31
0.0
  0
LINE
  5
50E80
  8
D-STR-DIM_寸法_
  6
CONTINUOUS
 10
253860.89213814811
 20
60317.650808941653
 30
0.0
 11
252839.79935094199
 21
60317.650808941653
 31
0.0
  0
LINE
  5
50E81
  8
D-STR-DIM_寸法_
  6
CONTINUOUS
 10
254210.89213814811
 20
58567.650808941638
 30
0.0
 11
252839.79935094199
 21
58567.650808941638
 31
0.0
  0
LINE
  5
50E82
  8
D-STR-DIM_寸法_
  6
CONTINUOUS
 10
252939.79935094199
 20
60167.650808941631
 30
0.0
 11
252939.79935094199
 21
58717.650808941653
 31
0.0
  0
LINE
  5
50E86
  8
D-STR-DIM_寸法_
  6
CONTINUOUS
 10
261278.67326080939
 20
63564.137180773381
 30
0.0
 11
261278.67326080939
 21
61617.326485480073
 31
0.0
  0
LINE
  5
50E87
  8
D-STR-DIM_寸法_
  6
CONTINUOUS
 10
259528.6732608095
 20
62599.137180773381
 30
0.0
 11
259528.6732608095
 21
61617.326485480073
 31
0.0
  0
LINE
  5
50E88
  8
D-STR-DIM_寸法_
  6
CONTINUOUS
 10
261128.67326080939
 20
61717.326485480051
 30
0.0
 11
259678.6732608095
 21
61717.326485480051
 31
0.0
  0
LINE
  5
50E8C
  8
D-STR-DIM_寸法_
  6
CONTINUOUS
 10
259528.67326080939
 20
65454.137180773381
 30
0.0
 11
258408.5268592716
 21
65454.137180773381
 31
0.0
  0
LINE
  5
50E8D
  8
D-STR-DIM_寸法_
  6
CONTINUOUS
 10
259528.67326080939
 20
62624.137180773381
 30
0.0
 11
258408.5268592716
 21
62624.137180773381
 31
0.0
  0
LINE
  5
50E8E
  8
D-STR-DIM_寸法_
  6
CONTINUOUS
 10
258508.5268592716
 20
65304.137180773381
 30
0.0
 11
258508.5268592716
 21
62774.137180773381
 31
0.0
  0
LINE
  5
50E92
  8
D-STR-DIM_寸法_
  6
CONTINUOUS
 10
254456.60281626679
 20
65524.847858892041
 30
0.0
 11
254982.4540546647
 21
66050.699097290038
 31
0.0
  0
LINE
  5
50E93
  8
D-STR-DIM_寸法_
  6
CONTINUOUS
 10
255871.60281626671
 20
64109.847858892041
 30
0.0
 11
256397.4540546647
 21
64635.699097290031
 31
0.0
  0
LINE
  5
50E94
  8
D-STR-DIM_寸法_
  6
CONTINUOUS
 10
255017.80939372411
 20
65873.922401993434
 30
0.0
 11
256220.6773593681
 21
64671.054436349368
 31
0.0
  0
LINE
  5
50E98
  8
D-STR-DIM_寸法_
  6
CONTINUOUS
 10
253885.89213814819
 20
62524.137180773381
 30
0.0
 11
253885.89213814819
 21
61617.326485480073
 31
0.0
  0
LINE
  5
50E99
  8
D-STR-DIM_寸法_
  6
CONTINUOUS
 10
255800.89213814811
 20
62526.67410003137
 30
0.0
 11
255800.89213814811
 21
61617.326485480073
 31
0.0
  0
LINE
  5
50E9A
  8
D-STR-DIM_寸法_
  6
CONTINUOUS
 10
254035.89213814831
 20
61717.326485480051
 30
0.0
 11
255650.89213814811
 21
61717.326485480051
 31
0.0
  0
LINE
  5
50E9E
  8
D-STR-DIM_寸法_
  6
CONTINUOUS
 10
254385.89213814811
 20
62524.137180773381
 30
0.0
 11
254385.89213814811
 21
61965.910097223707
 31
0.0
  0
LINE
  5
50E9F
  8
D-STR-DIM_寸法_
  6
CONTINUOUS
 10
253885.89213814819
 20
62524.137180773381
 30
0.0
 11
253885.89213814819
 21
61965.910097223707
 31
0.0
  0
LINE
  5
50EA0
  8
D-STR-DIM_寸法_
  6
CONTINUOUS
 10
254235.89213814811
 20
62065.910097223692
 30
0.0
 11
254035.89213814831
 21
62065.910097223692
 31
0.0
  0
LINE
  5
50EA4
  8
D-STR-DIM_寸法_
  6
CONTINUOUS
 10
253785.89213814811
 20
65454.137180773381
 30
0.0
 11
252839.79935094199
 21
65454.137180773381
 31
0.0
  0
LINE
  5
50EA5
  8
D-STR-DIM_寸法_
  6
CONTINUOUS
 10
253785.89213814811
 20
62624.137180773389
 30
0.0
 11
252839.79935094199
 21
62624.137180773389
 31
0.0
  0
LINE
  5
50EA6
  8
D-STR-DIM_寸法_
  6
CONTINUOUS
 10
252939.79935094199
 20
65304.137180773381
 30
0.0
 11
252939.79935094199
 21
62774.137180773389
 31
0.0
  0
LINE
  5
50EAA
  8
D-STR-DIM_寸法_
  6
CONTINUOUS
 10
243644.86612246381
 20
60317.650808941653
 30
0.0
 11
242657.75816363329
 21
60317.650808941653
 31
0.0
  0
LINE
  5
50EAB
  8
D-STR-DIM_寸法_
  6
CONTINUOUS
 10
243819.86612246381
 20
58567.650808941638
 30
0.0
 11
242657.75816363329
 21
58567.650808941638
 31
0.0
  0
LINE
  5
50EAC
  8
D-STR-DIM_寸法_
  6
CONTINUOUS
 10
242757.75816363329
 20
60167.650808941631
 30
0.0
 11
242757.75816363329
 21
58717.650808941653
 31
0.0
  0
LINE
  5
50EB0
  8
D-STR-DIM_寸法_
  6
CONTINUOUS
 10
244669.86612246389
 20
60317.650808941653
 30
0.0
 11
244669.86612246389
 21
60846.866302636103
 31
0.0
  0
LINE
  5
50EB1
  8
D-STR-DIM_寸法_
  6
CONTINUOUS
 10
243669.86612246389
 20
60317.650808941653
 30
0.0
 11
243669.86612246389
 21
60846.866302636103
 31
0.0
  0
LINE
  5
50EB2
  8
D-STR-DIM_寸法_
  6
CONTINUOUS
 10
244519.86612246389
 20
60746.866302636103
 30
0.0
 11
243819.86612246381
 21
60746.866302636103
 31
0.0
  0
LINE
  5
50EB6
  8
D-STR-DIM_寸法_
  6
CONTINUOUS
 10
246635.9082875069
 20
65454.137180773352
 30
0.0
 11
245841.6103568481
 21
65454.137180773352
 31
0.0
  0
LINE
  5
50EB7
  8
D-STR-DIM_寸法_
  6
CONTINUOUS
 10
246635.9082875069
 20
63954.137180773352
 30
0.0
 11
245841.6103568481
 21
63954.137180773352
 31
0.0
  0
LINE
  5
50EB8
  8
D-STR-DIM_寸法_
  6
CONTINUOUS
 10
245941.6103568481
 20
65304.137180773352
 30
0.0
 11
245941.6103568481
 21
64104.137180773352
 31
0.0
  0
LINE
  5
50EBC
  8
D-STR-DIM_寸法_
  6
CONTINUOUS
 10
248385.9082875069
 20
64229.137180773352
 30
0.0
 11
248385.9082875069
 21
63218.28483792732
 31
0.0
  0
LINE
  5
50EBD
  8
D-STR-DIM_寸法_
  6
CONTINUOUS
 10
246635.9082875069
 20
63929.137180773352
 30
0.0
 11
246635.9082875069
 21
63218.28483792732
 31
0.0
  0
LINE
  5
50EBE
  8
D-STR-DIM_寸法_
  6
CONTINUOUS
 10
248235.9082875069
 20
63318.284837927313
 30
0.0
 11
246785.9082875069
 21
63318.284837927313
 31
0.0
  0
LINE
  5
50EC2
  8
D-STR-DIM_寸法_
  6
CONTINUOUS
 10
244669.86612246389
 20
63854.137180773352
 30
0.0
 11
244669.86612246389
 21
63218.28483792732
 31
0.0
  0
LINE
  5
50EC3
  8
D-STR-DIM_寸法_
  6
CONTINUOUS
 10
243669.86612246389
 20
63854.137180773352
 30
0.0
 11
243669.86612246389
 21
63218.28483792732
 31
0.0
  0
LINE
  5
50EC4
  8
D-STR-DIM_寸法_
  6
CONTINUOUS
 10
244519.86612246389
 20
63318.284837927313
 30
0.0
 11
243819.86612246389
 21
63318.284837927313
 31
0.0
  0
LINE
  5
50EC8
  8
D-STR-DIM_寸法_
  6
CONTINUOUS
 10
243569.86612246381
 20
65454.137180773381
 30
0.0
 11
242657.75816363329
 21
65454.137180773381
 31
0.0
  0
LINE
  5
50EC9
  8
D-STR-DIM_寸法_
  6
CONTINUOUS
 10
243569.86612246381
 20
63954.137180773352
 30
0.0
 11
242657.75816363329
 21
63954.137180773352
 31
0.0
  0
LINE
  5
50ECA
  8
D-STR-DIM_寸法_
  6
CONTINUOUS
 10
242757.75816363329
 20
65304.137180773381
 30
0.0
 11
242757.75816363329
 21
64104.137180773352
 31
0.0
  0
LINE
  5
50ECE
  8
D-STR-DIM_寸法_
  6
CONTINUOUS
 10
231694.27077417189
 20
49628.124551551613
 30
0.0
 11
230974.6816502295
 21
49628.124551551613
 31
0.0
  0
LINE
  5
50ECF
  8
D-STR-DIM_寸法_
  6
CONTINUOUS
 10
232304.27077417189
 20
47878.124551551598
 30
0.0
 11
230974.6816502295
 21
47878.124551551598
 31
0.0
  0
LINE
  5
50ED0
  8
D-STR-DIM_寸法_
  6
CONTINUOUS
 10
231074.6816502295
 20
49478.124551551591
 30
0.0
 11
231074.6816502295
 21
48028.124551551598
 31
0.0
  0
LINE
  5
50ED4
  8
D-STR-DIM_寸法_
  6
CONTINUOUS
 10
231719.27077417189
 20
49628.124551551613
 30
0.0
 11
231719.27077417189
 21
50379.043904900071
 31
0.0
  0
LINE
  5
50ED5
  8
D-STR-DIM_寸法_
  6
CONTINUOUS
 10
233839.27077417201
 20
49628.124551551613
 30
0.0
 11
233839.27077417201
 21
50379.043904900071
 31
0.0
  0
LINE
  5
50ED6
  8
D-STR-DIM_寸法_
  6
CONTINUOUS
 10
231869.27077417189
 20
50279.043904900071
 30
0.0
 11
233689.27077417201
 21
50279.043904900071
 31
0.0
  0
LINE
  5
50EDA
  8
D-STR-DIM_寸法_
  6
CONTINUOUS
 10
236146.38547016529
 20
53775.857166271249
 30
0.0
 11
236146.38547016529
 21
54246.32534859881
 31
0.0
  0
LINE
  5
50EDB
  8
D-STR-DIM_寸法_
  6
CONTINUOUS
 10
237896.38547016541
 20
53340.857166271249
 30
0.0
 11
237896.38547016541
 21
54246.32534859881
 31
0.0
  0
LINE
  5
50EDC
  8
D-STR-DIM_寸法_
  6
CONTINUOUS
 10
236296.38547016541
 20
54146.32534859881
 30
0.0
 11
237746.38547016541
 21
54146.32534859881
 31
0.0
  0
LINE
  5
50EE0
  8
D-STR-DIM_寸法_
  6
CONTINUOUS
 10
236146.38547016529
 20
53750.857166271249
 30
0.0
 11
235399.07430776069
 21
53750.857166271249
 31
0.0
  0
LINE
  5
50EE1
  8
D-STR-DIM_寸法_
  6
CONTINUOUS
 10
236146.38547016529
 20
52190.857166271257
 30
0.0
 11
235399.07430776069
 21
52190.857166271257
 31
0.0
  0
LINE
  5
50EE2
  8
D-STR-DIM_寸法_
  6
CONTINUOUS
 10
235499.07430776069
 20
53600.857166271257
 30
0.0
 11
235499.07430776069
 21
52340.857166271249
 31
0.0
  0
LINE
  5
50EE6
  8
D-STR-DIM_寸法_
  6
CONTINUOUS
 10
233939.27077417189
 20
52190.857166271257
 30
0.0
 11
234637.12466245479
 21
52190.857166271257
 31
0.0
  0
LINE
  5
50EE7
  8
D-STR-DIM_寸法_
  6
CONTINUOUS
 10
233858.1977183134
 20
53750.857166271249
 30
0.0
 11
234637.12466245479
 21
53750.857166271249
 31
0.0
  0
LINE
  5
50EE8
  8
D-STR-DIM_寸法_
  6
CONTINUOUS
 10
234537.12466245479
 20
52340.857166271249
 30
0.0
 11
234537.12466245479
 21
53600.857166271257
 31
0.0
  0
LINE
  5
50EEC
  8
D-STR-DIM_寸法_
  6
CONTINUOUS
 10
233839.27077417201
 20
52090.857166271249
 30
0.0
 11
233839.27077417201
 21
51441.808256549113
 31
0.0
  0
LINE
  5
50EED
  8
D-STR-DIM_寸法_
  6
CONTINUOUS
 10
231719.27077417189
 20
52090.857166271249
 30
0.0
 11
231719.27077417189
 21
51441.808256549113
 31
0.0
  0
LINE
  5
50EEE
  8
D-STR-DIM_寸法_
  6
CONTINUOUS
 10
233689.27077417201
 20
51541.80825654912
 30
0.0
 11
231869.27077417189
 21
51541.80825654912
 31
0.0
  0
LINE
  5
50EF2
  8
D-STR-DIM_寸法_
  6
CONTINUOUS
 10
231619.27077417189
 20
52690.857166271257
 30
0.0
 11
230974.6816502295
 21
52690.857166271257
 31
0.0
  0
LINE
  5
50EF3
  8
D-STR-DIM_寸法_
  6
CONTINUOUS
 10
231619.27077417189
 20
52190.857166271257
 30
0.0
 11
230974.6816502295
 21
52190.857166271257
 31
0.0
  0
LINE
  5
50EF4
  8
D-STR-DIM_寸法_
  6
CONTINUOUS
 10
231074.6816502295
 20
52540.857166271249
 30
0.0
 11
231074.6816502295
 21
52340.857166271249
 31
0.0
  0
LINE
  5
50EF8
  8
D-STR-DIM_寸法_
  6
CONTINUOUS
 10
232708.56009605329
 20
53821.567844389923
 30
0.0
 11
232231.917252143
 21
54298.210688300147
 31
0.0
  0
LINE
  5
50EF9
  8
D-STR-DIM_寸法_
  6
CONTINUOUS
 10
231648.56009605329
 20
52761.567844389952
 30
0.0
 11
231171.917252143
 21
53238.210688300183
 31
0.0
  0
LINE
  5
50EFA
  8
D-STR-DIM_寸法_
  6
CONTINUOUS
 10
232196.56191308369
 20
54121.433993003477
 30
0.0
 11
231348.69394743969
 21
53273.566027359499
 31
0.0
  0
LINE
  5
50EFE
  8
D-STR-DIM_寸法_
  6
CONTINUOUS
 10
231694.27077417189
 20
60317.650808941653
 30
0.0
 11
230909.80668847269
 21
60317.650808941653
 31
0.0
  0
LINE
  5
50EFF
  8
D-STR-DIM_寸法_
  6
CONTINUOUS
 10
232244.27077417201
 20
58567.650808941638
 30
0.0
 11
230909.80668847269
 21
58567.650808941638
 31
0.0
  0
LINE
  5
50F00
  8
D-STR-DIM_寸法_
  6
CONTINUOUS
 10
231009.80668847269
 20
60167.650808941631
 30
0.0
 11
231009.80668847269
 21
58717.650808941653
 31
0.0
  0
LINE
  5
50F04
  8
D-STR-DIM_寸法_
  6
CONTINUOUS
 10
231619.27077417189
 20
65454.137180773381
 30
0.0
 11
230909.80668847269
 21
65454.137180773381
 31
0.0
  0
LINE
  5
50F05
  8
D-STR-DIM_寸法_
  6
CONTINUOUS
 10
231619.2707741718
 20
63954.137180773381
 30
0.0
 11
230909.80668847269
 21
63954.137180773381
 31
0.0
  0
LINE
  5
50F06
  8
D-STR-DIM_寸法_
  6
CONTINUOUS
 10
231009.80668847269
 20
65304.137180773381
 30
0.0
 11
231009.80668847269
 21
64104.137180773381
 31
0.0
  0
LINE
  5
50F0A
  8
D-STR-DIM_寸法_
  6
CONTINUOUS
 10
233719.2438710233
 20
60317.20242313057
 30
0.0
 11
233719.2438710233
 21
60846.866302636103
 31
0.0
  0
LINE
  5
50F0B
  8
D-STR-DIM_寸法_
  6
CONTINUOUS
 10
231719.27077417189
 20
60317.650808941653
 30
0.0
 11
231719.27077417189
 21
60846.866302636103
 31
0.0
  0
LINE
  5
50F0C
  8
D-STR-DIM_寸法_
  6
CONTINUOUS
 10
233569.2438710233
 20
60746.866302636103
 30
0.0
 11
231869.27077417189
 21
60746.866302636103
 31
0.0
  0
LINE
  5
50F10
  8
D-STR-DIM_寸法_
  6
CONTINUOUS
 10
236146.38547016529
 20
65454.137180773381
 30
0.0
 11
235403.21803735991
 21
65454.137180773381
 31
0.0
  0
LINE
  5
50F11
  8
D-STR-DIM_寸法_
  6
CONTINUOUS
 10
236146.38547016529
 20
63954.137180773381
 30
0.0
 11
235403.21803735991
 21
63954.137180773381
 31
0.0
  0
LINE
  5
50F12
  8
D-STR-DIM_寸法_
  6
CONTINUOUS
 10
235503.21803735991
 20
65304.137180773381
 30
0.0
 11
235503.21803735991
 21
64104.137180773381
 31
0.0
  0
LINE
  5
50F16
  8
D-STR-DIM_寸法_
  6
CONTINUOUS
 10
237896.38547016541
 20
64229.137180773381
 30
0.0
 11
237896.38547016541
 21
63218.28483792732
 31
0.0
  0
LINE
  5
50F17
  8
D-STR-DIM_寸法_
  6
CONTINUOUS
 10
236146.38547016529
 20
63929.137180773381
 30
0.0
 11
236146.38547016529
 21
63218.28483792732
 31
0.0
  0
LINE
  5
50F18
  8
D-STR-DIM_寸法_
  6
CONTINUOUS
 10
237746.38547016541
 20
63318.284837927313
 30
0.0
 11
236296.38547016541
 21
63318.284837927313
 31
0.0
  0
LINE
  5
50F1C
  8
D-STR-DIM_寸法_
  6
CONTINUOUS
 10
233719.2707741718
 20
63854.137180773381
 30
0.0
 11
233719.2707741718
 21
63218.28483792732
 31
0.0
  0
LINE
  5
50F1D
  8
D-STR-DIM_寸法_
  6
CONTINUOUS
 10
231719.2707741718
 20
63854.137180773381
 30
0.0
 11
231719.2707741718
 21
63218.28483792732
 31
0.0
  0
LINE
  5
50F1E
  8
D-STR-DIM_寸法_
  6
CONTINUOUS
 10
233569.2707741718
 20
63318.284837927313
 30
0.0
 11
231869.2707741718
 21
63318.284837927313
 31
0.0
  0
TEXT
  5
50F22
  8
D-STR-DIM_寸法_
  6
CONTINUOUS
 10
232428.4078300093
 20
63368.28483792732
 30
0.0
 40
300.0
  1
400
  7
ＭＳゴシック
1001
ACAD
1000
MTEXTBEGIN
1070
    73
1070
     1
1070
    44
1040
1.0
1070
    74
1070
     0
1000
MTEXTEND
  0
LINE
  5
50F23
  8
0
  6
BYBLOCK
 62
     0
 10
231869.2707741718
 20
63293.284837927313
 30
0.0
 11
231719.2707741718
 21
63318.284837927313
 31
0.0
  0
LINE
  5
50F24
  8
0
  6
BYBLOCK
 62
     0
 10
231719.2707741718
 20
63318.284837927313
 30
0.0
 11
231869.2707741718
 21
63343.284837927313
 31
0.0
  0
LINE
  5
50F25
  8
0
  6
BYBLOCK
 62
     0
 10
231719.2707741718
 20
63318.284837927313
 30
0.0
 11
231869.2707741718
 21
63318.284837927313
 31
0.0
  0
LINE
  5
50F26
  8
0
  6
BYBLOCK
 62
     0
 10
233569.2707741718
 20
63343.284837927313
 30
0.0
 11
233719.2707741718
 21
63318.284837927313
 31
0.0
  0
LINE
  5
50F27
  8
0
  6
BYBLOCK
 62
     0
 10
233719.2707741718
 20
63318.284837927313
 30
0.0
 11
233569.2707741718
 21
63293.284837927313
 31
0.0
  0
LINE
  5
50F28
  8
0
  6
BYBLOCK
 62
     0
 10
233719.2707741718
 20
63318.284837927313
 30
0.0
 11
233569.2707741718
 21
63318.284837927313
 31
0.0
  0
TEXT
  5
50F29
  8
D-STR-DIM_寸法_
  6
CONTINUOUS
 10
236728.23826204351
 20
63368.28483792732
 30
0.0
 40
300.0
  1
350
  7
ＭＳゴシック
1001
ACAD
1000
MTEXTBEGIN
1070
    73
1070
     1
1070
    44
1040
1.0
1070
    74
1070
     0
1000
MTEXTEND
  0
LINE
  5
50F2A
  8
0
  6
BYBLOCK
 62
     0
 10
236296.38547016541
 20
63293.284837927313
 30
0.0
 11
236146.38547016529
 21
63318.284837927313
 31
0.0
  0
LINE
  5
50F2B
  8
0
  6
BYBLOCK
 62
     0
 10
236146.38547016529
 20
63318.284837927313
 30
0.0
 11
236296.38547016541
 21
63343.284837927313
 31
0.0
  0
LINE
  5
50F2C
  8
0
  6
BYBLOCK
 62
     0
 10
236146.38547016529
 20
63318.284837927313
 30
0.0
 11
236296.38547016541
 21
63318.284837927313
 31
0.0
  0
LINE
  5
50F2D
  8
0
  6
BYBLOCK
 62
     0
 10
237746.38547016541
 20
63343.284837927313
 30
0.0
 11
237896.38547016541
 21
63318.284837927313
 31
0.0
  0
LINE
  5
50F2E
  8
0
  6
BYBLOCK
 62
     0
 10
237896.38547016541
 20
63318.284837927313
 30
0.0
 11
237746.38547016541
 21
63293.284837927313
 31
0.0
  0
LINE
  5
50F2F
  8
0
  6
BYBLOCK
 62
     0
 10
237896.38547016541
 20
63318.284837927313
 30
0.0
 11
237746.38547016541
 21
63318.284837927313
 31
0.0
  0
TEXT
  5
50F30
  8
D-STR-DIM_寸法_
  6
CONTINUOUS
 10
235453.21803735991
 20
64410.989972651587
 30
0.0
 40
300.0
  1
300
 50
90.0
  7
ＭＳゴシック
1001
ACAD
1000
MTEXTBEGIN
1070
    73
1070
     1
1070
    44
1040
1.0
1070
    74
1070
     0
1000
MTEXTEND
  0
LINE
  5
50F31
  8
0
  6
BYBLOCK
 62
     0
 10
235528.21803735991
 20
64104.137180773381
 30
0.0
 11
235503.21803735991
 21
63954.137180773381
 31
0.0
  0
LINE
  5
50F32
  8
0
  6
BYBLOCK
 62
     0
 10
235503.21803735991
 20
63954.137180773381
 30
0.0
 11
235478.21803735991
 21
64104.137180773381
 31
0.0
  0
LINE
  5
50F33
  8
0
  6
BYBLOCK
 62
     0
 10
235503.21803735991
 20
63954.137180773381
 30
0.0
 11
235503.21803735991
 21
64104.137180773381
 31
0.0
  0
LINE
  5
50F34
  8
0
  6
BYBLOCK
 62
     0
 10
235478.21803735991
 20
65304.137180773381
 30
0.0
 11
235503.21803735991
 21
65454.137180773381
 31
0.0
  0
LINE
  5
50F35
  8
0
  6
BYBLOCK
 62
     0
 10
235503.21803735991
 20
65454.137180773381
 30
0.0
 11
235528.21803735991
 21
65304.137180773381
 31
0.0
  0
LINE
  5
50F36
  8
0
  6
BYBLOCK
 62
     0
 10
235503.21803735991
 20
65454.137180773381
 30
0.0
 11
235503.21803735991
 21
65304.137180773381
 31
0.0
  0
TEXT
  5
50F37
  8
D-STR-DIM_寸法_
  6
CONTINUOUS
 10
232428.3943784353
 20
60796.866302636103
 30
0.0
 40
300.0
  1
400
  7
ＭＳゴシック
1001
ACAD
1000
MTEXTBEGIN
1070
    73
1070
     1
1070
    44
1040
1.0
1070
    74
1070
     0
1000
MTEXTEND
  0
LINE
  5
50F38
  8
0
  6
BYBLOCK
 62
     0
 10
231869.27077417189
 20
60721.866302636103
 30
0.0
 11
231719.27077417189
 21
60746.866302636103
 31
0.0
  0
LINE
  5
50F39
  8
0
  6
BYBLOCK
 62
     0
 10
231719.27077417189
 20
60746.866302636103
 30
0.0
 11
231869.27077417189
 21
60771.866302636103
 31
0.0
  0
LINE
  5
50F3A
  8
0
  6
BYBLOCK
 62
     0
 10
231719.27077417189
 20
60746.866302636103
 30
0.0
 11
231869.27077417189
 21
60746.866302636103
 31
0.0
  0
LINE
  5
50F3B
  8
0
  6
BYBLOCK
 62
     0
 10
233569.2438710233
 20
60771.866302636103
 30
0.0
 11
233719.2438710233
 21
60746.866302636103
 31
0.0
  0
LINE
  5
50F3C
  8
0
  6
BYBLOCK
 62
     0
 10
233719.2438710233
 20
60746.866302636103
 30
0.0
 11
233569.2438710233
 21
60721.866302636103
 31
0.0
  0
LINE
  5
50F3D
  8
0
  6
BYBLOCK
 62
     0
 10
233719.2438710233
 20
60746.866302636103
 30
0.0
 11
233569.2438710233
 21
60746.866302636103
 31
0.0
  0
TEXT
  5
50F3E
  8
D-STR-DIM_寸法_
  6
CONTINUOUS
 10
230959.8066884726
 20
64410.989972651587
 30
0.0
 40
300.0
  1
300
 50
90.0
  7
ＭＳゴシック
1001
ACAD
1000
MTEXTBEGIN
1070
    73
1070
     1
1070
    44
1040
1.0
1070
    74
1070
     0
1000
MTEXTEND
  0
LINE
  5
50F3F
  8
0
  6
BYBLOCK
 62
     0
 10
231034.80668847269
 20
64104.137180773381
 30
0.0
 11
231009.80668847269
 21
63954.137180773381
 31
0.0
  0
LINE
  5
50F40
  8
0
  6
BYBLOCK
 62
     0
 10
231009.80668847269
 20
63954.137180773381
 30
0.0
 11
230984.80668847269
 21
64104.137180773381
 31
0.0
  0
LINE
  5
50F41
  8
0
  6
BYBLOCK
 62
     0
 10
231009.80668847269
 20
63954.137180773381
 30
0.0
 11
231009.80668847269
 21
64104.137180773381
 31
0.0
  0
LINE
  5
50F42
  8
0
  6
BYBLOCK
 62
     0
 10
230984.80668847269
 20
65304.137180773381
 30
0.0
 11
231009.80668847269
 21
65454.137180773381
 31
0.0
  0
LINE
  5
50F43
  8
0
  6
BYBLOCK
 62
     0
 10
231009.80668847269
 20
65454.137180773381
 30
0.0
 11
231034.80668847269
 21
65304.137180773381
 31
0.0
  0
LINE
  5
50F44
  8
0
  6
BYBLOCK
 62
     0
 10
231009.80668847269
 20
65454.137180773381
 30
0.0
 11
231009.80668847269
 21
65304.137180773381
 31
0.0
  0
TEXT
  5
50F45
  8
D-STR-DIM_寸法_
  6
CONTINUOUS
 10
230959.8066884726
 20
59149.503600819851
 30
0.0
 40
300.0
  1
350
 50
90.0
  7
ＭＳゴシック
1001
ACAD
1000
MTEXTBEGIN
1070
    73
1070
     1
1070
    44
1040
1.0
1070
    74
1070
     0
1000
MTEXTEND
  0
LINE
  5
50F46
  8
0
  6
BYBLOCK
 62
     0
 10
231034.80668847269
 20
58717.650808941638
 30
0.0
 11
231009.80668847269
 21
58567.650808941638
 31
0.0
  0
LINE
  5
50F47
  8
0
  6
BYBLOCK
 62
     0
 10
231009.80668847269
 20
58567.650808941638
 30
0.0
 11
230984.80668847269
 21
58717.650808941638
 31
0.0
  0
LINE
  5
50F48
  8
0
  6
BYBLOCK
 62
     0
 10
231009.80668847269
 20
58567.650808941638
 30
0.0
 11
231009.80668847269
 21
58717.650808941638
 31
0.0
  0
LINE
  5
50F49
  8
0
  6
BYBLOCK
 62
     0
 10
230984.80668847269
 20
60167.650808941653
 30
0.0
 11
231009.80668847269
 21
60317.650808941653
 31
0.0
  0
LINE
  5
50F4A
  8
0
  6
BYBLOCK
 62
     0
 10
231009.80668847269
 20
60317.650808941653
 30
0.0
 11
231034.80668847269
 21
60167.650808941653
 31
0.0
  0
LINE
  5
50F4B
  8
0
  6
BYBLOCK
 62
     0
 10
231009.80668847269
 20
60317.650808941653
 30
0.0
 11
231009.80668847269
 21
60167.650808941653
 31
0.0
  0
TEXT
  5
50F4C
  8
D-STR-DIM_寸法_
  6
CONTINUOUS
 10
231529.9862124536
 20
53525.568970491913
 30
0.0
 40
300.0
  1
300
 50
45.0
  7
ＭＳゴシック
1001
ACAD
1000
MTEXTBEGIN
1070
    73
1070
     1
1070
    44
1040
1.0
1070
    74
1070
     0
1000
MTEXTEND
  0
LINE
  5
50F4D
  8
0
  6
BYBLOCK
 62
     0
 10
231366.37161696941
 20
53255.888357829826
 30
0.0
 11
231242.62793026169
 21
53167.500010181517
 31
0.0
  0
LINE
  5
50F4E
  8
0
  6
BYBLOCK
 62
     0
 10
231242.62793026169
 20
53167.500010181517
 30
0.0
 11
231331.01627791001
 21
53291.243696889171
 31
0.0
  0
LINE
  5
50F4F
  8
0
  6
BYBLOCK
 62
     0
 10
231242.62793026169
 20
53167.500010181517
 30
0.0
 11
231348.69394743969
 21
53273.566027359499
 31
0.0
  0
LINE
  5
50F50
  8
0
  6
BYBLOCK
 62
     0
 10
232178.88424355409
 20
54139.111662533171
 30
0.0
 11
232302.62793026169
 21
54227.50001018148
 31
0.0
  0
LINE
  5
50F51
  8
0
  6
BYBLOCK
 62
     0
 10
232302.62793026169
 20
54227.50001018148
 30
0.0
 11
232214.2395826134
 21
54103.756323473841
 31
0.0
  0
LINE
  5
50F52
  8
0
  6
BYBLOCK
 62
     0
 10
232302.62793026169
 20
54227.50001018148
 30
0.0
 11
232196.56191308369
 21
54121.433993003498
 31
0.0
  0
LINE
  5
50F53
  8
0
  6
BYBLOCK
 62
     0
 10
231099.6816502295
 20
52340.857166271249
 30
0.0
 11
231074.6816502295
 21
52190.857166271257
 31
0.0
  0
LINE
  5
50F54
  8
0
  6
BYBLOCK
 62
     0
 10
231074.6816502295
 20
52190.857166271257
 30
0.0
 11
231049.6816502295
 21
52340.857166271249
 31
0.0
  0
LINE
  5
50F55
  8
0
  6
BYBLOCK
 62
     0
 10
231074.6816502295
 20
52190.857166271257
 30
0.0
 11
231074.6816502295
 21
52340.857166271249
 31
0.0
  0
LINE
  5
50F56
  8
0
  6
BYBLOCK
 62
     0
 10
231049.6816502295
 20
52540.857166271249
 30
0.0
 11
231074.6816502295
 21
52690.857166271257
 31
0.0
  0
LINE
  5
50F57
  8
0
  6
BYBLOCK
 62
     0
 10
231074.6816502295
 20
52690.857166271257
 30
0.0
 11
231099.6816502295
 21
52540.857166271249
 31
0.0
  0
LINE
  5
50F58
  8
0
  6
BYBLOCK
 62
     0
 10
231074.6816502295
 20
52690.857166271257
 30
0.0
 11
231074.6816502295
 21
52540.857166271249
 31
0.0
  0
TEXT
  5
50F59
  8
D-STR-DIM_寸法_
  6
CONTINUOUS
 10
230899.6816502295
 20
52137.050059672321
 30
0.0
 40
300.0
  1
100
 50
90.0
  7
ＭＳゴシック
1001
ACAD
1000
MTEXTBEGIN
1070
    73
1070
     1
1070
    44
1040
1.0
1070
    74
1070
     0
1000
MTEXTEND
  0
TEXT
  5
50F5A
  8
D-STR-DIM_寸法_
  6
CONTINUOUS
 10
232487.6464086897
 20
51591.80825654912
 30
0.0
 40
300.0
  1
424
  7
ＭＳゴシック
1001
ACAD
1000
MTEXTBEGIN
1070
    73
1070
     1
1070
    44
1040
1.0
1070
    74
1070
     0
1000
MTEXTEND
  0
LINE
  5
50F5B
  8
0
  6
BYBLOCK
 62
     0
 10
231869.27077417189
 20
51516.80825654912
 30
0.0
 11
231719.27077417189
 21
51541.80825654912
 31
0.0
  0
LINE
  5
50F5C
  8
0
  6
BYBLOCK
 62
     0
 10
231719.27077417189
 20
51541.80825654912
 30
0.0
 11
231869.27077417189
 21
51566.80825654912
 31
0.0
  0
LINE
  5
50F5D
  8
0
  6
BYBLOCK
 62
     0
 10
231719.27077417189
 20
51541.80825654912
 30
0.0
 11
231869.27077417189
 21
51541.80825654912
 31
0.0
  0
LINE
  5
50F5E
  8
0
  6
BYBLOCK
 62
     0
 10
233689.27077417201
 20
51566.80825654912
 30
0.0
 11
233839.27077417201
 21
51541.80825654912
 31
0.0
  0
LINE
  5
50F5F
  8
0
  6
BYBLOCK
 62
     0
 10
233839.27077417201
 20
51541.80825654912
 30
0.0
 11
233689.27077417201
 21
51516.80825654912
 31
0.0
  0
LINE
  5
50F60
  8
0
  6
BYBLOCK
 62
     0
 10
233839.27077417201
 20
51541.80825654912
 30
0.0
 11
233689.27077417201
 21
51541.80825654912
 31
0.0
  0
TEXT
  5
50F61
  8
D-STR-DIM_寸法_
  6
CONTINUOUS
 10
234487.12466245491
 20
52680.75564342866
 30
0.0
 40
300.0
  1
312
 50
90.0
  7
ＭＳゴシック
1001
ACAD
1000
MTEXTBEGIN
1070
    73
1070
     1
1070
    44
1040
1.0
1070
    74
1070
     0
1000
MTEXTEND
  0
LINE
  5
50F62
  8
0
  6
BYBLOCK
 62
     0
 10
234512.12466245479
 20
53600.857166271257
 30
0.0
 11
234537.12466245479
 21
53750.857166271249
 31
0.0
  0
LINE
  5
50F63
  8
0
  6
BYBLOCK
 62
     0
 10
234537.12466245479
 20
53750.857166271249
 30
0.0
 11
234562.12466245479
 21
53600.857166271257
 31
0.0
  0
LINE
  5
50F64
  8
0
  6
BYBLOCK
 62
     0
 10
234537.12466245479
 20
53750.857166271249
 30
0.0
 11
234537.12466245479
 21
53600.857166271257
 31
0.0
  0
LINE
  5
50F65
  8
0
  6
BYBLOCK
 62
     0
 10
234562.12466245479
 20
52340.857166271249
 30
0.0
 11
234537.12466245479
 21
52190.857166271257
 31
0.0
  0
LINE
  5
50F66
  8
0
  6
BYBLOCK
 62
     0
 10
234537.12466245479
 20
52190.857166271257
 30
0.0
 11
234512.12466245479
 21
52340.857166271249
 31
0.0
  0
LINE
  5
50F67
  8
0
  6
BYBLOCK
 62
     0
 10
234537.12466245479
 20
52190.857166271257
 30
0.0
 11
234537.12466245479
 21
52340.857166271249
 31
0.0
  0
TEXT
  5
50F68
  8
D-STR-DIM_寸法_
  6
CONTINUOUS
 10
235449.07430776069
 20
52680.75564342866
 30
0.0
 40
300.0
  1
312
 50
90.0
  7
ＭＳゴシック
1001
ACAD
1000
MTEXTBEGIN
1070
    73
1070
     1
1070
    44
1040
1.0
1070
    74
1070
     0
1000
MTEXTEND
  0
LINE
  5
50F69
  8
0
  6
BYBLOCK
 62
     0
 10
235524.07430776069
 20
52340.857166271249
 30
0.0
 11
235499.07430776069
 21
52190.857166271257
 31
0.0
  0
LINE
  5
50F6A
  8
0
  6
BYBLOCK
 62
     0
 10
235499.07430776069
 20
52190.857166271257
 30
0.0
 11
235474.07430776069
 21
52340.857166271249
 31
0.0
  0
LINE
  5
50F6B
  8
0
  6
BYBLOCK
 62
     0
 10
235499.07430776069
 20
52190.857166271257
 30
0.0
 11
235499.07430776069
 21
52340.857166271249
 31
0.0
  0
LINE
  5
50F6C
  8
0
  6
BYBLOCK
 62
     0
 10
235474.07430776069
 20
53600.857166271257
 30
0.0
 11
235499.07430776069
 21
53750.857166271249
 31
0.0
  0
LINE
  5
50F6D
  8
0
  6
BYBLOCK
 62
     0
 10
235499.07430776069
 20
53750.857166271249
 30
0.0
 11
235524.07430776069
 21
53600.857166271257
 31
0.0
  0
LINE
  5
50F6E
  8
0
  6
BYBLOCK
 62
     0
 10
235499.07430776069
 20
53750.857166271249
 30
0.0
 11
235499.07430776069
 21
53600.857166271257
 31
0.0
  0
TEXT
  5
50F6F
  8
D-STR-DIM_寸法_
  6
CONTINUOUS
 10
236728.23826204351
 20
54196.32534859881
 30
0.0
 40
300.0
  1
350
  7
ＭＳゴシック
1001
ACAD
1000
MTEXTBEGIN
1070
    73
1070
     1
1070
    44
1040
1.0
1070
    74
1070
     0
1000
MTEXTEND
  0
LINE
  5
50F70
  8
0
  6
BYBLOCK
 62
     0
 10
237746.38547016541
 20
54171.325348598817
 30
0.0
 11
237896.38547016541
 21
54146.32534859881
 31
0.0
  0
LINE
  5
50F71
  8
0
  6
BYBLOCK
 62
     0
 10
237896.38547016541
 20
54146.32534859881
 30
0.0
 11
237746.38547016541
 21
54121.325348598817
 31
0.0
  0
LINE
  5
50F72
  8
0
  6
BYBLOCK
 62
     0
 10
237896.38547016541
 20
54146.32534859881
 30
0.0
 11
237746.38547016541
 21
54146.32534859881
 31
0.0
  0
LINE
  5
50F73
  8
0
  6
BYBLOCK
 62
     0
 10
236296.38547016541
 20
54121.325348598817
 30
0.0
 11
236146.38547016529
 21
54146.32534859881
 31
0.0
  0
LINE
  5
50F74
  8
0
  6
BYBLOCK
 62
     0
 10
236146.38547016529
 20
54146.32534859881
 30
0.0
 11
236296.38547016541
 21
54171.325348598817
 31
0.0
  0
LINE
  5
50F75
  8
0
  6
BYBLOCK
 62
     0
 10
236146.38547016529
 20
54146.32534859881
 30
0.0
 11
236296.38547016541
 21
54146.32534859881
 31
0.0
  0
TEXT
  5
50F76
  8
D-STR-DIM_寸法_
  6
CONTINUOUS
 10
232487.6464086897
 20
50329.043904900078
 30
0.0
 40
300.0
  1
424
  7
ＭＳゴシック
1001
ACAD
1000
MTEXTBEGIN
1070
    73
1070
     1
1070
    44
1040
1.0
1070
    74
1070
     0
1000
MTEXTEND
  0
LINE
  5
50F77
  8
0
  6
BYBLOCK
 62
     0
 10
233689.27077417201
 20
50304.043904900078
 30
0.0
 11
233839.27077417201
 21
50279.043904900071
 31
0.0
  0
LINE
  5
50F78
  8
0
  6
BYBLOCK
 62
     0
 10
233839.27077417201
 20
50279.043904900071
 30
0.0
 11
233689.27077417201
 21
50254.043904900078
 31
0.0
  0
LINE
  5
50F79
  8
0
  6
BYBLOCK
 62
     0
 10
233839.27077417201
 20
50279.043904900071
 30
0.0
 11
233689.27077417201
 21
50279.043904900071
 31
0.0
  0
LINE
  5
50F7A
  8
0
  6
BYBLOCK
 62
     0
 10
231869.27077417189
 20
50254.043904900078
 30
0.0
 11
231719.27077417189
 21
50279.043904900071
 31
0.0
  0
LINE
  5
50F7B
  8
0
  6
BYBLOCK
 62
     0
 10
231719.27077417189
 20
50279.043904900071
 30
0.0
 11
231869.27077417189
 21
50304.043904900078
 31
0.0
  0
LINE
  5
50F7C
  8
0
  6
BYBLOCK
 62
     0
 10
231719.27077417189
 20
50279.043904900071
 30
0.0
 11
231869.27077417189
 21
50279.043904900071
 31
0.0
  0
TEXT
  5
50F7D
  8
D-STR-DIM_寸法_
  6
CONTINUOUS
 10
231024.6816502295
 20
48459.977343429811
 30
0.0
 40
300.0
  1
350
 50
90.0
  7
ＭＳゴシック
1001
ACAD
1000
MTEXTBEGIN
1070
    73
1070
     1
1070
    44
1040
1.0
1070
    74
1070
     0
1000
MTEXTEND
  0
LINE
  5
50F7E
  8
0
  6
BYBLOCK
 62
     0
 10
231099.6816502295
 20
48028.124551551598
 30
0.0
 11
231074.6816502295
 21
47878.124551551598
 31
0.0
  0
LINE
  5
50F7F
  8
0
  6
BYBLOCK
 62
     0
 10
231074.6816502295
 20
47878.124551551598
 30
0.0
 11
231049.6816502295
 21
48028.124551551598
 31
0.0
  0
LINE
  5
50F80
  8
0
  6
BYBLOCK
 62
     0
 10
231074.6816502295
 20
47878.124551551598
 30
0.0
 11
231074.6816502295
 21
48028.124551551598
 31
0.0
  0
LINE
  5
50F81
  8
0
  6
BYBLOCK
 62
     0
 10
231049.6816502295
 20
49478.124551551613
 30
0.0
 11
231074.6816502295
 21
49628.124551551613
 31
0.0
  0
LINE
  5
50F82
  8
0
  6
BYBLOCK
 62
     0
 10
231074.6816502295
 20
49628.124551551613
 30
0.0
 11
231099.6816502295
 21
49478.124551551613
 31
0.0
  0
LINE
  5
50F83
  8
0
  6
BYBLOCK
 62
     0
 10
231074.6816502295
 20
49628.124551551613
 30
0.0
 11
231074.6816502295
 21
49478.124551551613
 31
0.0
  0
TEXT
  5
50F84
  8
D-STR-DIM_寸法_
  6
CONTINUOUS
 10
242707.75816363329
 20
64410.989972651558
 30
0.0
 40
300.0
  1
300
 50
90.0
  7
ＭＳゴシック
1001
ACAD
1000
MTEXTBEGIN
1070
    73
1070
     1
1070
    44
1040
1.0
1070
    74
1070
     0
1000
MTEXTEND
  0
LINE
  5
50F85
  8
0
  6
BYBLOCK
 62
     0
 10
242782.75816363329
 20
64104.137180773352
 30
0.0
 11
242757.75816363329
 21
63954.137180773352
 31
0.0
  0
LINE
  5
50F86
  8
0
  6
BYBLOCK
 62
     0
 10
242757.75816363329
 20
63954.137180773352
 30
0.0
 11
242732.75816363329
 21
64104.137180773352
 31
0.0
  0
LINE
  5
50F87
  8
0
  6
BYBLOCK
 62
     0
 10
242757.75816363329
 20
63954.137180773352
 30
0.0
 11
242757.75816363329
 21
64104.137180773352
 31
0.0
  0
LINE
  5
50F88
  8
0
  6
BYBLOCK
 62
     0
 10
242732.75816363329
 20
65304.137180773381
 30
0.0
 11
242757.75816363329
 21
65454.137180773381
 31
0.0
  0
LINE
  5
50F89
  8
0
  6
BYBLOCK
 62
     0
 10
242757.75816363329
 20
65454.137180773381
 30
0.0
 11
242782.75816363329
 21
65304.137180773381
 31
0.0
  0
LINE
  5
50F8A
  8
0
  6
BYBLOCK
 62
     0
 10
242757.75816363329
 20
65454.137180773381
 30
0.0
 11
242757.75816363329
 21
65304.137180773381
 31
0.0
  0
TEXT
  5
50F8B
  8
D-STR-DIM_寸法_
  6
CONTINUOUS
 10
243875.9574930222
 20
63368.28483792732
 30
0.0
 40
300.0
  1
200
  7
ＭＳゴシック
1001
ACAD
1000
MTEXTBEGIN
1070
    73
1070
     1
1070
    44
1040
1.0
1070
    74
1070
     0
1000
MTEXTEND
  0
LINE
  5
50F8C
  8
0
  6
BYBLOCK
 62
     0
 10
243819.86612246389
 20
63293.284837927313
 30
0.0
 11
243669.86612246389
 21
63318.284837927313
 31
0.0
  0
LINE
  5
50F8D
  8
0
  6
BYBLOCK
 62
     0
 10
243669.86612246389
 20
63318.284837927313
 30
0.0
 11
243819.86612246389
 21
63343.284837927313
 31
0.0
  0
LINE
  5
50F8E
  8
0
  6
BYBLOCK
 62
     0
 10
243669.86612246389
 20
63318.284837927313
 30
0.0
 11
243819.86612246389
 21
63318.284837927313
 31
0.0
  0
LINE
  5
50F8F
  8
0
  6
BYBLOCK
 62
     0
 10
244519.86612246389
 20
63343.284837927313
 30
0.0
 11
244669.86612246389
 21
63318.284837927313
 31
0.0
  0
LINE
  5
50F90
  8
0
  6
BYBLOCK
 62
     0
 10
244669.86612246389
 20
63318.284837927313
 30
0.0
 11
244519.86612246389
 21
63293.284837927313
 31
0.0
  0
LINE
  5
50F91
  8
0
  6
BYBLOCK
 62
     0
 10
244669.86612246389
 20
63318.284837927313
 30
0.0
 11
244519.86612246389
 21
63318.284837927313
 31
0.0
  0
TEXT
  5
50F92
  8
D-STR-DIM_寸法_
  6
CONTINUOUS
 10
247217.76107938509
 20
63368.28483792732
 30
0.0
 40
300.0
  1
350
  7
ＭＳゴシック
1001
ACAD
1000
MTEXTBEGIN
1070
    73
1070
     1
1070
    44
1040
1.0
1070
    74
1070
     0
1000
MTEXTEND
  0
LINE
  5
50F93
  8
0
  6
BYBLOCK
 62
     0
 10
246785.9082875069
 20
63293.284837927313
 30
0.0
 11
246635.9082875069
 21
63318.284837927313
 31
0.0
  0
LINE
  5
50F94
  8
0
  6
BYBLOCK
 62
     0
 10
246635.9082875069
 20
63318.284837927313
 30
0.0
 11
246785.9082875069
 21
63343.284837927313
 31
0.0
  0
LINE
  5
50F95
  8
0
  6
BYBLOCK
 62
     0
 10
246635.9082875069
 20
63318.284837927313
 30
0.0
 11
246785.9082875069
 21
63318.284837927313
 31
0.0
  0
LINE
  5
50F96
  8
0
  6
BYBLOCK
 62
     0
 10
248235.9082875069
 20
63343.284837927313
 30
0.0
 11
248385.9082875069
 21
63318.284837927313
 31
0.0
  0
LINE
  5
50F97
  8
0
  6
BYBLOCK
 62
     0
 10
248385.9082875069
 20
63318.284837927313
 30
0.0
 11
248235.9082875069
 21
63293.284837927313
 31
0.0
  0
LINE
  5
50F98
  8
0
  6
BYBLOCK
 62
     0
 10
248385.9082875069
 20
63318.284837927313
 30
0.0
 11
248235.9082875069
 21
63318.284837927313
 31
0.0
  0
TEXT
  5
50F99
  8
D-STR-DIM_寸法_
  6
CONTINUOUS
 10
245891.6103568481
 20
64410.989972651558
 30
0.0
 40
300.0
  1
300
 50
90.0
  7
ＭＳゴシック
1001
ACAD
1000
MTEXTBEGIN
1070
    73
1070
     1
1070
    44
1040
1.0
1070
    74
1070
     0
1000
MTEXTEND
  0
LINE
  5
50F9A
  8
0
  6
BYBLOCK
 62
     0
 10
245966.6103568481
 20
64104.137180773352
 30
0.0
 11
245941.6103568481
 21
63954.137180773352
 31
0.0
  0
LINE
  5
50F9B
  8
0
  6
BYBLOCK
 62
     0
 10
245941.6103568481
 20
63954.137180773352
 30
0.0
 11
245916.6103568481
 21
64104.137180773352
 31
0.0
  0
LINE
  5
50F9C
  8
0
  6
BYBLOCK
 62
     0
 10
245941.6103568481
 20
63954.137180773352
 30
0.0
 11
245941.6103568481
 21
64104.137180773352
 31
0.0
  0
LINE
  5
50F9D
  8
0
  6
BYBLOCK
 62
     0
 10
245916.6103568481
 20
65304.137180773352
 30
0.0
 11
245941.6103568481
 21
65454.137180773352
 31
0.0
  0
LINE
  5
50F9E
  8
0
  6
BYBLOCK
 62
     0
 10
245941.6103568481
 20
65454.137180773352
 30
0.0
 11
245966.6103568481
 21
65304.137180773352
 31
0.0
  0
LINE
  5
50F9F
  8
0
  6
BYBLOCK
 62
     0
 10
245941.6103568481
 20
65454.137180773352
 30
0.0
 11
245941.6103568481
 21
65304.137180773352
 31
0.0
  0
TEXT
  5
50FA0
  8
D-STR-DIM_寸法_
  6
CONTINUOUS
 10
243875.9574930222
 20
60796.866302636103
 30
0.0
 40
300.0
  1
200
  7
ＭＳゴシック
1001
ACAD
1000
MTEXTBEGIN
1070
    73
1070
     1
1070
    44
1040
1.0
1070
    74
1070
     0
1000
MTEXTEND
  0
LINE
  5
50FA1
  8
0
  6
BYBLOCK
 62
     0
 10
243819.86612246389
 20
60721.866302636103
 30
0.0
 11
243669.86612246389
 21
60746.866302636103
 31
0.0
  0
LINE
  5
50FA2
  8
0
  6
BYBLOCK
 62
     0
 10
243669.86612246389
 20
60746.866302636103
 30
0.0
 11
243819.86612246389
 21
60771.866302636103
 31
0.0
  0
LINE
  5
50FA3
  8
0
  6
BYBLOCK
 62
     0
 10
243669.86612246389
 20
60746.866302636103
 30
0.0
 11
243819.86612246389
 21
60746.866302636103
 31
0.0
  0
LINE
  5
50FA4
  8
0
  6
BYBLOCK
 62
     0
 10
244519.86612246389
 20
60771.866302636103
 30
0.0
 11
244669.86612246389
 21
60746.866302636103
 31
0.0
  0
LINE
  5
50FA5
  8
0
  6
BYBLOCK
 62
     0
 10
244669.86612246389
 20
60746.866302636103
 30
0.0
 11
244519.86612246389
 21
60721.866302636103
 31
0.0
  0
LINE
  5
50FA6
  8
0
  6
BYBLOCK
 62
     0
 10
244669.86612246389
 20
60746.866302636103
 30
0.0
 11
244519.86612246389
 21
60746.866302636103
 31
0.0
  0
TEXT
  5
50FA7
  8
D-STR-DIM_寸法_
  6
CONTINUOUS
 10
242707.75816363329
 20
59149.503600819851
 30
0.0
 40
300.0
  1
350
 50
90.0
  7
ＭＳゴシック
1001
ACAD
1000
MTEXTBEGIN
1070
    73
1070
     1
1070
    44
1040
1.0
1070
    74
1070
     0
1000
MTEXTEND
  0
LINE
  5
50FA8
  8
0
  6
BYBLOCK
 62
     0
 10
242782.75816363329
 20
58717.650808941638
 30
0.0
 11
242757.75816363329
 21
58567.650808941638
 31
0.0
  0
LINE
  5
50FA9
  8
0
  6
BYBLOCK
 62
     0
 10
242757.75816363329
 20
58567.650808941638
 30
0.0
 11
242732.75816363329
 21
58717.650808941638
 31
0.0
  0
LINE
  5
50FAA
  8
0
  6
BYBLOCK
 62
     0
 10
242757.75816363329
 20
58567.650808941638
 30
0.0
 11
242757.75816363329
 21
58717.650808941638
 31
0.0
  0
LINE
  5
50FAB
  8
0
  6
BYBLOCK
 62
     0
 10
242732.75816363329
 20
60167.650808941653
 30
0.0
 11
242757.75816363329
 21
60317.650808941653
 31
0.0
  0
LINE
  5
50FAC
  8
0
  6
BYBLOCK
 62
     0
 10
242757.75816363329
 20
60317.650808941653
 30
0.0
 11
242782.75816363329
 21
60167.650808941653
 31
0.0
  0
LINE
  5
50FAD
  8
0
  6
BYBLOCK
 62
     0
 10
242757.75816363329
 20
60317.650808941653
 30
0.0
 11
242757.75816363329
 21
60167.650808941653
 31
0.0
  0
TEXT
  5
50FAE
  8
D-STR-DIM_寸法_
  6
CONTINUOUS
 10
252889.79935094211
 20
63749.035657930777
 30
0.0
 40
300.0
  1
566
 50
90.0
  7
ＭＳゴシック
1001
ACAD
1000
MTEXTBEGIN
1070
    73
1070
     1
1070
    44
1040
1.0
1070
    74
1070
     0
1000
MTEXTEND
  0
LINE
  5
50FAF
  8
0
  6
BYBLOCK
 62
     0
 10
252964.79935094199
 20
62774.137180773389
 30
0.0
 11
252939.79935094199
 21
62624.137180773389
 31
0.0
  0
LINE
  5
50FB0
  8
0
  6
BYBLOCK
 62
     0
 10
252939.79935094199
 20
62624.137180773389
 30
0.0
 11
252914.79935094199
 21
62774.137180773389
 31
0.0
  0
LINE
  5
50FB1
  8
0
  6
BYBLOCK
 62
     0
 10
252939.79935094199
 20
62624.137180773389
 30
0.0
 11
252939.79935094199
 21
62774.137180773389
 31
0.0
  0
LINE
  5
50FB2
  8
0
  6
BYBLOCK
 62
     0
 10
252914.79935094199
 20
65304.137180773381
 30
0.0
 11
252939.79935094199
 21
65454.137180773381
 31
0.0
  0
LINE
  5
50FB3
  8
0
  6
BYBLOCK
 62
     0
 10
252939.79935094199
 20
65454.137180773381
 30
0.0
 11
252964.79935094199
 21
65304.137180773381
 31
0.0
  0
LINE
  5
50FB4
  8
0
  6
BYBLOCK
 62
     0
 10
252939.79935094199
 20
65454.137180773381
 30
0.0
 11
252939.79935094199
 21
65304.137180773381
 31
0.0
  0
LINE
  5
50FB5
  8
0
  6
BYBLOCK
 62
     0
 10
254035.89213814831
 20
62040.910097223699
 30
0.0
 11
253885.89213814819
 21
62065.910097223692
 31
0.0
  0
LINE
  5
50FB6
  8
0
  6
BYBLOCK
 62
     0
 10
253885.89213814819
 20
62065.910097223692
 30
0.0
 11
254035.89213814831
 21
62090.910097223699
 31
0.0
  0
LINE
  5
50FB7
  8
0
  6
BYBLOCK
 62
     0
 10
253885.89213814819
 20
62065.910097223692
 30
0.0
 11
254035.89213814831
 21
62065.910097223692
 31
0.0
  0
LINE
  5
50FB8
  8
0
  6
BYBLOCK
 62
     0
 10
254235.89213814811
 20
62090.910097223699
 30
0.0
 11
254385.89213814811
 21
62065.910097223692
 31
0.0
  0
LINE
  5
50FB9
  8
0
  6
BYBLOCK
 62
     0
 10
254385.89213814811
 20
62065.910097223692
 30
0.0
 11
254235.89213814811
 21
62040.910097223699
 31
0.0
  0
LINE
  5
50FBA
  8
0
  6
BYBLOCK
 62
     0
 10
254385.89213814811
 20
62065.910097223692
 30
0.0
 11
254235.89213814811
 21
62065.910097223692
 31
0.0
  0
TEXT
  5
50FBB
  8
D-STR-DIM_寸法_
  6
CONTINUOUS
 10
253832.0850315491
 20
62127.346735224339
 30
0.0
 40
300.0
  1
100
  7
ＭＳゴシック
1001
ACAD
1000
MTEXTBEGIN
1070
    73
1070
     1
1070
    44
1040
1.0
1070
    74
1070
     0
1000
MTEXTEND
  0
TEXT
  5
50FBC
  8
D-STR-DIM_寸法_
  6
CONTINUOUS
 10
254554.05203662519
 20
61767.326485480051
 30
0.0
 40
300.0
  1
383
  7
ＭＳゴシック
1001
ACAD
1000
MTEXTBEGIN
1070
    73
1070
     1
1070
    44
1040
1.0
1070
    74
1070
     0
1000
MTEXTEND
  0
LINE
  5
50FBD
  8
0
  6
BYBLOCK
 62
     0
 10
255650.89213814811
 20
61742.326485480058
 30
0.0
 11
255800.89213814811
 21
61717.326485480051
 31
0.0
  0
LINE
  5
50FBE
  8
0
  6
BYBLOCK
 62
     0
 10
255800.89213814811
 20
61717.326485480051
 30
0.0
 11
255650.89213814811
 21
61692.326485480058
 31
0.0
  0
LINE
  5
50FBF
  8
0
  6
BYBLOCK
 62
     0
 10
255800.89213814811
 20
61717.326485480051
 30
0.0
 11
255650.89213814811
 21
61717.326485480051
 31
0.0
  0
LINE
  5
50FC0
  8
0
  6
BYBLOCK
 62
     0
 10
254035.89213814831
 20
61692.326485480058
 30
0.0
 11
253885.89213814819
 21
61717.326485480051
 31
0.0
  0
LINE
  5
50FC1
  8
0
  6
BYBLOCK
 62
     0
 10
253885.89213814819
 20
61717.326485480051
 30
0.0
 11
254035.89213814831
 21
61742.326485480058
 31
0.0
  0
LINE
  5
50FC2
  8
0
  6
BYBLOCK
 62
     0
 10
253885.89213814819
 20
61717.326485480051
 30
0.0
 11
254035.89213814831
 21
61717.326485480051
 31
0.0
  0
TEXT
  5
50FC3
  8
D-STR-DIM_寸法_
  6
CONTINUOUS
 10
255448.92755539229
 20
65513.5149184439
 30
0.0
 40
300.0
  1
400
 50
315.0
  7
ＭＳゴシック
1001
ACAD
1000
MTEXTBEGIN
1070
    73
1070
     1
1070
    44
1040
1.0
1070
    74
1070
     0
1000
MTEXTEND
  0
LINE
  5
50FC4
  8
0
  6
BYBLOCK
 62
     0
 10
256238.35502889779
 20
64688.732105879062
 30
0.0
 11
256326.7433765461
 21
64564.988419171423
 31
0.0
  0
LINE
  5
50FC5
  8
0
  6
BYBLOCK
 62
     0
 10
256326.7433765461
 20
64564.988419171423
 30
0.0
 11
256202.9996898385
 21
64653.376766819732
 31
0.0
  0
LINE
  5
50FC6
  8
0
  6
BYBLOCK
 62
     0
 10
256326.7433765461
 20
64564.988419171423
 30
0.0
 11
256220.6773593681
 21
64671.054436349397
 31
0.0
  0
LINE
  5
50FC7
  8
0
  6
BYBLOCK
 62
     0
 10
255000.13172419451
 20
65856.244732463747
 30
0.0
 11
254911.74337654619
 21
65979.988419171394
 31
0.0
  0
LINE
  5
50FC8
  8
0
  6
BYBLOCK
 62
     0
 10
254911.74337654619
 20
65979.988419171394
 30
0.0
 11
255035.48706325379
 21
65891.600071523077
 31
0.0
  0
LINE
  5
50FC9
  8
0
  6
BYBLOCK
 62
     0
 10
254911.74337654619
 20
65979.988419171394
 30
0.0
 11
255017.80939372411
 21
65873.922401993404
 31
0.0
  0
TEXT
  5
50FCA
  8
D-STR-DIM_寸法_
  6
CONTINUOUS
 10
258458.52685927169
 20
63749.035657930777
 30
0.0
 40
300.0
  1
566
 50
90.0
  7
ＭＳゴシック
1001
ACAD
1000
MTEXTBEGIN
1070
    73
1070
     1
1070
    44
1040
1.0
1070
    74
1070
     0
1000
MTEXTEND
  0
LINE
  5
50FCB
  8
0
  6
BYBLOCK
 62
     0
 10
258533.52685927169
 20
62774.137180773381
 30
0.0
 11
258508.5268592716
 21
62624.137180773381
 31
0.0
  0
LINE
  5
50FCC
  8
0
  6
BYBLOCK
 62
     0
 10
258508.5268592716
 20
62624.137180773381
 30
0.0
 11
258483.5268592716
 21
62774.137180773381
 31
0.0
  0
LINE
  5
50FCD
  8
0
  6
BYBLOCK
 62
     0
 10
258508.5268592716
 20
62624.137180773381
 30
0.0
 11
258508.5268592716
 21
62774.137180773381
 31
0.0
  0
LINE
  5
50FCE
  8
0
  6
BYBLOCK
 62
     0
 10
258483.5268592716
 20
65304.137180773381
 30
0.0
 11
258508.5268592716
 21
65454.137180773381
 31
0.0
  0
LINE
  5
50FCF
  8
0
  6
BYBLOCK
 62
     0
 10
258508.5268592716
 20
65454.137180773381
 30
0.0
 11
258533.52685927169
 21
65304.137180773381
 31
0.0
  0
LINE
  5
50FD0
  8
0
  6
BYBLOCK
 62
     0
 10
258508.5268592716
 20
65454.137180773381
 30
0.0
 11
258508.5268592716
 21
65304.137180773381
 31
0.0
  0
TEXT
  5
50FD1
  8
D-STR-DIM_寸法_
  6
CONTINUOUS
 10
260110.52605268761
 20
61767.326485480051
 30
0.0
 40
300.0
  1
350
  7
ＭＳゴシック
1001
ACAD
1000
MTEXTBEGIN
1070
    73
1070
     1
1070
    44
1040
1.0
1070
    74
1070
     0
1000
MTEXTEND
  0
LINE
  5
50FD2
  8
0
  6
BYBLOCK
 62
     0
 10
259678.6732608095
 20
61692.326485480058
 30
0.0
 11
259528.6732608095
 21
61717.326485480051
 31
0.0
  0
LINE
  5
50FD3
  8
0
  6
BYBLOCK
 62
     0
 10
259528.6732608095
 20
61717.326485480051
 30
0.0
 11
259678.6732608095
 21
61742.326485480058
 31
0.0
  0
LINE
  5
50FD4
  8
0
  6
BYBLOCK
 62
     0
 10
259528.6732608095
 20
61717.326485480051
 30
0.0
 11
259678.6732608095
 21
61717.326485480051
 31
0.0
  0
LINE
  5
50FD5
  8
0
  6
BYBLOCK
 62
     0
 10
261128.67326080939
 20
61742.326485480058
 30
0.0
 11
261278.67326080939
 21
61717.326485480051
 31
0.0
  0
LINE
  5
50FD6
  8
0
  6
BYBLOCK
 62
     0
 10
261278.67326080939
 20
61717.326485480051
 30
0.0
 11
261128.67326080939
 21
61692.326485480058
 31
0.0
  0
LINE
  5
50FD7
  8
0
  6
BYBLOCK
 62
     0
 10
261278.67326080939
 20
61717.326485480051
 30
0.0
 11
261128.67326080939
 21
61717.326485480051
 31
0.0
  0
TEXT
  5
50FD8
  8
D-STR-DIM_寸法_
  6
CONTINUOUS
 10
252889.79935094211
 20
59149.503600819851
 30
0.0
 40
300.0
  1
350
 50
90.0
  7
ＭＳゴシック
1001
ACAD
1000
MTEXTBEGIN
1070
    73
1070
     1
1070
    44
1040
1.0
1070
    74
1070
     0
1000
MTEXTEND
  0
LINE
  5
50FD9
  8
0
  6
BYBLOCK
 62
     0
 10
252964.79935094199
 20
58717.650808941638
 30
0.0
 11
252939.79935094199
 21
58567.650808941638
 31
0.0
  0
LINE
  5
50FDA
  8
0
  6
BYBLOCK
 62
     0
 10
252939.79935094199
 20
58567.650808941638
 30
0.0
 11
252914.79935094199
 21
58717.650808941638
 31
0.0
  0
LINE
  5
50FDB
  8
0
  6
BYBLOCK
 62
     0
 10
252939.79935094199
 20
58567.650808941638
 30
0.0
 11
252939.79935094199
 21
58717.650808941638
 31
0.0
  0
LINE
  5
50FDC
  8
0
  6
BYBLOCK
 62
     0
 10
252914.79935094199
 20
60167.650808941653
 30
0.0
 11
252939.79935094199
 21
60317.650808941653
 31
0.0
  0
LINE
  5
50FDD
  8
0
  6
BYBLOCK
 62
     0
 10
252939.79935094199
 20
60317.650808941653
 30
0.0
 11
252964.79935094199
 21
60167.650808941653
 31
0.0
  0
LINE
  5
50FDE
  8
0
  6
BYBLOCK
 62
     0
 10
252939.79935094199
 20
60317.650808941653
 30
0.0
 11
252939.79935094199
 21
60167.650808941653
 31
0.0
  0
TEXT
  5
50FDF
  8
D-STR-DIM_寸法_
  6
CONTINUOUS
 10
254554.05203662519
 20
60796.866302636103
 30
0.0
 40
300.0
  1
383
  7
ＭＳゴシック
1001
ACAD
1000
MTEXTBEGIN
1070
    73
1070
     1
1070
    44
1040
1.0
1070
    74
1070
     0
1000
MTEXTEND
  0
LINE
  5
50FE0
  8
0
  6
BYBLOCK
 62
     0
 10
254035.89213814811
 20
60721.866302636103
 30
0.0
 11
253885.89213814811
 21
60746.866302636103
 31
0.0
  0
LINE
  5
50FE1
  8
0
  6
BYBLOCK
 62
     0
 10
253885.89213814811
 20
60746.866302636103
 30
0.0
 11
254035.89213814811
 21
60771.866302636103
 31
0.0
  0
LINE
  5
50FE2
  8
0
  6
BYBLOCK
 62
     0
 10
253885.89213814811
 20
60746.866302636103
 30
0.0
 11
254035.89213814811
 21
60746.866302636103
 31
0.0
  0
LINE
  5
50FE3
  8
0
  6
BYBLOCK
 62
     0
 10
255650.89213814811
 20
60771.866302636103
 30
0.0
 11
255800.89213814811
 21
60746.866302636103
 31
0.0
  0
LINE
  5
50FE4
  8
0
  6
BYBLOCK
 62
     0
 10
255800.89213814811
 20
60746.866302636103
 30
0.0
 11
255650.89213814811
 21
60721.866302636103
 31
0.0
  0
LINE
  5
50FE5
  8
0
  6
BYBLOCK
 62
     0
 10
255800.89213814811
 20
60746.866302636103
 30
0.0
 11
255650.89213814811
 21
60746.866302636103
 31
0.0
  0
TEXT
  5
50FE6
  8
D-STR-DIM_寸法_
  6
CONTINUOUS
 10
253658.8953150459
 20
53563.281231875859
 30
0.0
 40
300.0
  1
300
 50
44.999999999996852
  7
ＭＳゴシック
1001
ACAD
1000
MTEXTBEGIN
1070
    73
1070
     1
1070
    44
1040
1.0
1070
    74
1070
     0
1000
MTEXTEND
  0
LINE
  5
50FE7
  8
0
  6
BYBLOCK
 62
     0
 10
253495.28071956179
 20
53293.600619213699
 30
0.0
 11
253371.5370328541
 21
53205.212271565397
 31
0.0
  0
LINE
  5
50FE8
  8
0
  6
BYBLOCK
 62
     0
 10
253371.5370328541
 20
53205.212271565397
 30
0.0
 11
253459.92538050251
 21
53328.955958273029
 31
0.0
  0
LINE
  5
50FE9
  8
0
  6
BYBLOCK
 62
     0
 10
253371.5370328541
 20
53205.212271565397
 30
0.0
 11
253477.60305003211
 21
53311.278288743371
 31
0.0
  0
LINE
  5
50FEA
  8
0
  6
BYBLOCK
 62
     0
 10
254307.7933461465
 20
54176.823923916971
 30
0.0
 11
254431.5370328541
 21
54265.21227156528
 31
0.0
  0
LINE
  5
50FEB
  8
0
  6
BYBLOCK
 62
     0
 10
254431.5370328541
 20
54265.21227156528
 30
0.0
 11
254343.14868520579
 21
54141.468584857626
 31
0.0
  0
LINE
  5
50FEC
  8
0
  6
BYBLOCK
 62
     0
 10
254431.5370328541
 20
54265.21227156528
 30
0.0
 11
254325.4710156761
 21
54159.146254387299
 31
0.0
  0
TEXT
  5
50FED
  8
D-STR-DIM_寸法_
  6
CONTINUOUS
 10
257119.11121343361
 20
52555.75564342866
 30
0.0
 40
300.0
  1
362
 50
90.0
  7
ＭＳゴシック
1001
ACAD
1000
MTEXTBEGIN
1070
    73
1070
     1
1070
    44
1040
1.0
1070
    74
1070
     0
1000
MTEXTEND
  0
LINE
  5
50FEE
  8
0
  6
BYBLOCK
 62
     0
 10
257194.11121343361
 20
52090.857166271249
 30
0.0
 11
257169.11121343361
 21
51940.857166271249
 31
0.0
  0
LINE
  5
50FEF
  8
0
  6
BYBLOCK
 62
     0
 10
257169.11121343361
 20
51940.857166271249
 30
0.0
 11
257144.11121343361
 21
52090.857166271249
 31
0.0
  0
LINE
  5
50FF0
  8
0
  6
BYBLOCK
 62
     0
 10
257169.11121343361
 20
51940.857166271249
 30
0.0
 11
257169.11121343361
 21
52090.857166271249
 31
0.0
  0
LINE
  5
50FF1
  8
0
  6
BYBLOCK
 62
     0
 10
257144.11121343361
 20
53600.857166271257
 30
0.0
 11
257169.11121343361
 21
53750.857166271249
 31
0.0
  0
LINE
  5
50FF2
  8
0
  6
BYBLOCK
 62
     0
 10
257169.11121343361
 20
53750.857166271249
 30
0.0
 11
257194.11121343361
 21
53600.857166271257
 31
0.0
  0
LINE
  5
50FF3
  8
0
  6
BYBLOCK
 62
     0
 10
257169.11121343361
 20
53750.857166271249
 30
0.0
 11
257169.11121343361
 21
53600.857166271257
 31
0.0
  0
TEXT
  5
50FF4
  8
D-STR-DIM_寸法_
  6
CONTINUOUS
 10
252993.3075075011
 20
52012.050059672321
 30
0.0
 40
300.0
  1
150
 50
90.0
  7
ＭＳゴシック
1001
ACAD
1000
MTEXTBEGIN
1070
    73
1070
     1
1070
    44
1040
1.0
1070
    74
1070
     0
1000
MTEXTEND
  0
LINE
  5
50FF5
  8
0
  6
BYBLOCK
 62
     0
 10
253068.3075075011
 20
52090.857166271249
 30
0.0
 11
253043.3075075011
 21
51940.857166271249
 31
0.0
  0
LINE
  5
50FF6
  8
0
  6
BYBLOCK
 62
     0
 10
253043.3075075011
 20
51940.857166271249
 30
0.0
 11
253018.3075075011
 21
52090.857166271249
 31
0.0
  0
LINE
  5
50FF7
  8
0
  6
BYBLOCK
 62
     0
 10
253043.3075075011
 20
51940.857166271249
 30
0.0
 11
253043.3075075011
 21
52090.857166271249
 31
0.0
  0
LINE
  5
50FF8
  8
0
  6
BYBLOCK
 62
     0
 10
253018.3075075011
 20
52540.857166271293
 30
0.0
 11
253043.3075075011
 21
52690.857166271278
 31
0.0
  0
LINE
  5
50FF9
  8
0
  6
BYBLOCK
 62
     0
 10
253043.3075075011
 20
52690.857166271278
 30
0.0
 11
253068.3075075011
 21
52540.857166271293
 31
0.0
  0
LINE
  5
50FFA
  8
0
  6
BYBLOCK
 62
     0
 10
253043.3075075011
 20
52690.857166271278
 30
0.0
 11
253043.3075075011
 21
52540.857166271293
 31
0.0
  0
TEXT
  5
50FFB
  8
D-STR-DIM_寸法_
  6
CONTINUOUS
 10
254654.2677726658
 20
51215.794487783402
 30
0.0
 40
300.0
  1
424
  7
ＭＳゴシック
1001
ACAD
1000
MTEXTBEGIN
1070
    73
1070
     1
1070
    44
1040
1.0
1070
    74
1070
     0
1000
MTEXTEND
  0
LINE
  5
50FFC
  8
0
  6
BYBLOCK
 62
     0
 10
254035.89213814831
 20
51140.794487783387
 30
0.0
 11
253885.89213814819
 21
51165.79448778338
 31
0.0
  0
LINE
  5
50FFD
  8
0
  6
BYBLOCK
 62
     0
 10
253885.89213814819
 20
51165.79448778338
 30
0.0
 11
254035.89213814831
 21
51190.794487783387
 31
0.0
  0
LINE
  5
50FFE
  8
0
  6
BYBLOCK
 62
     0
 10
253885.89213814819
 20
51165.79448778338
 30
0.0
 11
254035.89213814831
 21
51165.79448778338
 31
0.0
  0
LINE
  5
50FFF
  8
0
  6
BYBLOCK
 62
     0
 10
255855.89213814811
 20
51190.794487783387
 30
0.0
 11
256005.89213814811
 21
51165.79448778338
 31
0.0
  0
LINE
  5
51000
  8
0
  6
BYBLOCK
 62
     0
 10
256005.89213814811
 20
51165.79448778338
 30
0.0
 11
255855.89213814811
 21
51140.794487783387
 31
0.0
  0
LINE
  5
51001
  8
0
  6
BYBLOCK
 62
     0
 10
256005.89213814811
 20
51165.79448778338
 30
0.0
 11
255855.89213814811
 21
51165.79448778338
 31
0.0
  0
TEXT
  5
51002
  8
D-STR-DIM_寸法_
  6
CONTINUOUS
 10
254654.2677726658
 20
50249.951452740352
 30
0.0
 40
300.0
  1
424
  7
ＭＳゴシック
1001
ACAD
1000
MTEXTBEGIN
1070
    73
1070
     1
1070
    44
1040
1.0
1070
    74
1070
     0
1000
MTEXTEND
  0
LINE
  5
51003
  8
0
  6
BYBLOCK
 62
     0
 10
254035.89213814811
 20
50174.951452740352
 30
0.0
 11
253885.89213814811
 21
50199.951452740352
 31
0.0
  0
LINE
  5
51004
  8
0
  6
BYBLOCK
 62
     0
 10
253885.89213814811
 20
50199.951452740352
 30
0.0
 11
254035.89213814811
 21
50224.951452740352
 31
0.0
  0
LINE
  5
51005
  8
0
  6
BYBLOCK
 62
     0
 10
253885.89213814811
 20
50199.951452740352
 30
0.0
 11
254035.89213814811
 21
50199.951452740352
 31
0.0
  0
LINE
  5
51006
  8
0
  6
BYBLOCK
 62
     0
 10
255855.89213814811
 20
50224.951452740352
 30
0.0
 11
256005.89213814811
 21
50199.951452740352
 31
0.0
  0
LINE
  5
51007
  8
0
  6
BYBLOCK
 62
     0
 10
256005.89213814811
 20
50199.951452740352
 30
0.0
 11
255855.89213814811
 21
50174.951452740352
 31
0.0
  0
LINE
  5
51008
  8
0
  6
BYBLOCK
 62
     0
 10
256005.89213814811
 20
50199.951452740352
 30
0.0
 11
255855.89213814811
 21
50199.951452740352
 31
0.0
  0
TEXT
  5
51009
  8
D-STR-DIM_寸法_
  6
CONTINUOUS
 10
252993.3075075011
 20
48459.977343429819
 30
0.0
 40
300.0
  1
350
 50
90.0
  7
ＭＳゴシック
1001
ACAD
1000
MTEXTBEGIN
1070
    73
1070
     1
1070
    44
1040
1.0
1070
    74
1070
     0
1000
MTEXTEND
  0
LINE
  5
5100A
  8
0
  6
BYBLOCK
 62
     0
 10
253068.3075075011
 20
48028.124551551598
 30
0.0
 11
253043.3075075011
 21
47878.124551551598
 31
0.0
  0
LINE
  5
5100B
  8
0
  6
BYBLOCK
 62
     0
 10
253043.3075075011
 20
47878.124551551598
 30
0.0
 11
253018.3075075011
 21
48028.124551551598
 31
0.0
  0
LINE
  5
5100C
  8
0
  6
BYBLOCK
 62
     0
 10
253043.3075075011
 20
47878.124551551598
 30
0.0
 11
253043.3075075011
 21
48028.124551551598
 31
0.0
  0
LINE
  5
5100D
  8
0
  6
BYBLOCK
 62
     0
 10
253018.3075075011
 20
49478.124551551613
 30
0.0
 11
253043.3075075011
 21
49628.124551551613
 31
0.0
  0
LINE
  5
5100E
  8
0
  6
BYBLOCK
 62
     0
 10
253043.3075075011
 20
49628.124551551613
 30
0.0
 11
253068.3075075011
 21
49478.124551551613
 31
0.0
  0
LINE
  5
5100F
  8
0
  6
BYBLOCK
 62
     0
 10
253043.3075075011
 20
49628.124551551613
 30
0.0
 11
253043.3075075011
 21
49478.124551551613
 31
0.0
  0
TEXT
  5
51010
  8
D-STR-DIM_寸法_
  6
CONTINUOUS
 10
258458.52685927169
 20
52555.75564342866
 30
0.0
 40
300.0
  1
362
 50
90.0
  7
ＭＳゴシック
1001
ACAD
1000
MTEXTBEGIN
1070
    73
1070
     1
1070
    44
1040
1.0
1070
    74
1070
     0
1000
MTEXTEND
  0
LINE
  5
51011
  8
0
  6
BYBLOCK
 62
     0
 10
258533.52685927169
 20
52090.857166271249
 30
0.0
 11
258508.5268592716
 21
51940.857166271249
 31
0.0
  0
LINE
  5
51012
  8
0
  6
BYBLOCK
 62
     0
 10
258508.5268592716
 20
51940.857166271249
 30
0.0
 11
258483.5268592716
 21
52090.857166271249
 31
0.0
  0
LINE
  5
51013
  8
0
  6
BYBLOCK
 62
     0
 10
258508.5268592716
 20
51940.857166271249
 30
0.0
 11
258508.5268592716
 21
52090.857166271249
 31
0.0
  0
LINE
  5
51014
  8
0
  6
BYBLOCK
 62
     0
 10
258483.5268592716
 20
53600.857166271257
 30
0.0
 11
258508.5268592716
 21
53750.857166271249
 31
0.0
  0
LINE
  5
51015
  8
0
  6
BYBLOCK
 62
     0
 10
258508.5268592716
 20
53750.857166271249
 30
0.0
 11
258533.52685927169
 21
53600.857166271257
 31
0.0
  0
LINE
  5
51016
  8
0
  6
BYBLOCK
 62
     0
 10
258508.5268592716
 20
53750.857166271249
 30
0.0
 11
258508.5268592716
 21
53600.857166271257
 31
0.0
  0
TEXT
  5
51017
  8
D-STR-DIM_寸法_
  6
CONTINUOUS
 10
260110.5260526877
 20
51215.794487783402
 30
0.0
 40
300.0
  1
350
  7
ＭＳゴシック
1001
ACAD
1000
MTEXTBEGIN
1070
    73
1070
     1
1070
    44
1040
1.0
1070
    74
1070
     0
1000
MTEXTEND
  0
LINE
  5
51018
  8
0
  6
BYBLOCK
 62
     0
 10
259678.6732608095
 20
51140.794487783387
 30
0.0
 11
259528.6732608095
 21
51165.79448778338
 31
0.0
  0
LINE
  5
51019
  8
0
  6
BYBLOCK
 62
     0
 10
259528.6732608095
 20
51165.79448778338
 30
0.0
 11
259678.6732608095
 21
51190.794487783387
 31
0.0
  0
LINE
  5
5101A
  8
0
  6
BYBLOCK
 62
     0
 10
259528.6732608095
 20
51165.79448778338
 30
0.0
 11
259678.6732608095
 21
51165.79448778338
 31
0.0
  0
LINE
  5
5101B
  8
0
  6
BYBLOCK
 62
     0
 10
261128.6732608095
 20
51190.794487783387
 30
0.0
 11
261278.6732608095
 21
51165.79448778338
 31
0.0
  0
LINE
  5
5101C
  8
0
  6
BYBLOCK
 62
     0
 10
261278.6732608095
 20
51165.79448778338
 30
0.0
 11
261128.6732608095
 21
51140.794487783387
 31
0.0
  0
LINE
  5
5101D
  8
0
  6
BYBLOCK
 62
     0
 10
261278.6732608095
 20
51165.79448778338
 30
0.0
 11
261128.6732608095
 21
51165.79448778338
 31
0.0
  0
TEXT
  5
5101E
  8
D-STR-DIM_寸法_
  6
CONTINUOUS
 10
230698.5943511746
 20
38134.10676264124
 30
0.0
 40
300.0
  1
383
 50
90.0
  7
ＭＳゴシック
1001
ACAD
1000
MTEXTBEGIN
1070
    73
1070
     1
1070
    44
1040
1.0
1070
    74
1070
     0
1000
MTEXTEND
  0
LINE
  5
5101F
  8
0
  6
BYBLOCK
 62
     0
 10
230773.5943511746
 20
37615.946864164041
 30
0.0
 11
230748.5943511746
 21
37465.946864164041
 31
0.0
  0
LINE
  5
51020
  8
0
  6
BYBLOCK
 62
     0
 10
230748.5943511746
 20
37465.946864164041
 30
0.0
 11
230723.5943511746
 21
37615.946864164041
 31
0.0
  0
LINE
  5
51021
  8
0
  6
BYBLOCK
 62
     0
 10
230748.5943511746
 20
37465.946864164041
 30
0.0
 11
230748.5943511746
 21
37615.946864164041
 31
0.0
  0
LINE
  5
51022
  8
0
  6
BYBLOCK
 62
     0
 10
230723.5943511746
 20
39230.946864164041
 30
0.0
 11
230748.5943511746
 21
39380.946864164041
 31
0.0
  0
LINE
  5
51023
  8
0
  6
BYBLOCK
 62
     0
 10
230748.5943511746
 20
39380.946864164041
 30
0.0
 11
230773.5943511746
 21
39230.946864164041
 31
0.0
  0
LINE
  5
51024
  8
0
  6
BYBLOCK
 62
     0
 10
230748.5943511746
 20
39380.946864164041
 30
0.0
 11
230748.5943511746
 21
39230.946864164041
 31
0.0
  0
LINE
  5
51025
  8
0
  6
BYBLOCK
 62
     0
 10
234211.6738115802
 20
37615.946864164041
 30
0.0
 11
234186.6738115802
 21
37465.946864164041
 31
0.0
  0
LINE
  5
51026
  8
0
  6
BYBLOCK
 62
     0
 10
234186.6738115802
 20
37465.946864164041
 30
0.0
 11
234161.6738115802
 21
37615.946864164041
 31
0.0
  0
LINE
  5
51027
  8
0
  6
BYBLOCK
 62
     0
 10
234186.6738115802
 20
37465.946864164041
 30
0.0
 11
234186.6738115802
 21
37615.946864164041
 31
0.0
  0
LINE
  5
51028
  8
0
  6
BYBLOCK
 62
     0
 10
234161.6738115802
 20
37815.946864164041
 30
0.0
 11
234186.6738115802
 21
37965.946864164041
 31
0.0
  0
LINE
  5
51029
  8
0
  6
BYBLOCK
 62
     0
 10
234186.6738115802
 20
37965.946864164041
 30
0.0
 11
234211.6738115802
 21
37815.946864164041
 31
0.0
  0
LINE
  5
5102A
  8
0
  6
BYBLOCK
 62
     0
 10
234186.6738115802
 20
37965.946864164041
 30
0.0
 11
234186.6738115802
 21
37815.946864164041
 31
0.0
  0
TEXT
  5
5102B
  8
D-STR-DIM_寸法_
  6
CONTINUOUS
 10
234961.6738115802
 20
37412.139757565099
 30
0.0
 40
300.0
  1
100
 50
90.0
  7
ＭＳゴシック
1001
ACAD
1000
MTEXTBEGIN
1070
    73
1070
     1
1070
    44
1040
1.0
1070
    74
1070
     0
1000
MTEXTEND
  0
TEXT
  5
5102C
  8
D-STR-DIM_寸法_
  6
CONTINUOUS
 10
232387.43067264909
 20
36622.979924693936
 30
0.0
 40
300.0
  1
383
  7
ＭＳゴシック
1001
ACAD
1000
MTEXTBEGIN
1070
    73
1070
     1
1070
    44
1040
1.0
1070
    74
1070
     0
1000
MTEXTEND
  0
LINE
  5
5102D
  8
0
  6
BYBLOCK
 62
     0
 10
231869.27077417189
 20
36547.979924693936
 30
0.0
 11
231719.27077417189
 21
36572.979924693936
 31
0.0
  0
LINE
  5
5102E
  8
0
  6
BYBLOCK
 62
     0
 10
231719.27077417189
 20
36572.979924693936
 30
0.0
 11
231869.27077417189
 21
36597.979924693936
 31
0.0
  0
LINE
  5
5102F
  8
0
  6
BYBLOCK
 62
     0
 10
231719.27077417189
 20
36572.979924693936
 30
0.0
 11
231869.27077417189
 21
36572.979924693936
 31
0.0
  0
LINE
  5
51030
  8
0
  6
BYBLOCK
 62
     0
 10
233484.27077417189
 20
36597.979924693936
 30
0.0
 11
233634.27077417189
 21
36572.979924693936
 31
0.0
  0
LINE
  5
51031
  8
0
  6
BYBLOCK
 62
     0
 10
233634.27077417189
 20
36572.979924693936
 30
0.0
 11
233484.27077417189
 21
36547.979924693936
 31
0.0
  0
LINE
  5
51032
  8
0
  6
BYBLOCK
 62
     0
 10
233634.27077417189
 20
36572.979924693936
 30
0.0
 11
233484.27077417189
 21
36572.979924693936
 31
0.0
  0
TEXT
  5
51033
  8
D-STR-DIM_寸法_
  6
CONTINUOUS
 10
236728.23826204351
 20
36622.979924693936
 30
0.0
 40
300.0
  1
350
  7
ＭＳゴシック
1001
ACAD
1000
MTEXTBEGIN
1070
    73
1070
     1
1070
    44
1040
1.0
1070
    74
1070
     0
1000
MTEXTEND
  0
LINE
  5
51034
  8
0
  6
BYBLOCK
 62
     0
 10
236296.38547016541
 20
36547.979924693936
 30
0.0
 11
236146.38547016529
 21
36572.979924693936
 31
0.0
  0
LINE
  5
51035
  8
0
  6
BYBLOCK
 62
     0
 10
236146.38547016529
 20
36572.979924693936
 30
0.0
 11
236296.38547016541
 21
36597.979924693936
 31
0.0
  0
LINE
  5
51036
  8
0
  6
BYBLOCK
 62
     0
 10
236146.38547016529
 20
36572.979924693936
 30
0.0
 11
236296.38547016541
 21
36572.979924693936
 31
0.0
  0
LINE
  5
51037
  8
0
  6
BYBLOCK
 62
     0
 10
237746.38547016541
 20
36597.979924693936
 30
0.0
 11
237896.38547016541
 21
36572.979924693936
 31
0.0
  0
LINE
  5
51038
  8
0
  6
BYBLOCK
 62
     0
 10
237896.38547016541
 20
36572.979924693936
 30
0.0
 11
237746.38547016541
 21
36547.979924693936
 31
0.0
  0
LINE
  5
51039
  8
0
  6
BYBLOCK
 62
     0
 10
237896.38547016541
 20
36572.979924693936
 30
0.0
 11
237746.38547016541
 21
36572.979924693936
 31
0.0
  0
TEXT
  5
5103A
  8
D-STR-DIM_寸法_
  6
CONTINUOUS
 10
235396.13486408221
 20
38134.10676264124
 30
0.0
 40
300.0
  1
383
 50
90.0
  7
ＭＳゴシック
1001
ACAD
1000
MTEXTBEGIN
1070
    73
1070
     1
1070
    44
1040
1.0
1070
    74
1070
     0
1000
MTEXTEND
  0
LINE
  5
5103B
  8
0
  6
BYBLOCK
 62
     0
 10
235471.1348640823
 20
37615.946864164063
 30
0.0
 11
235446.1348640823
 21
37465.946864164063
 31
0.0
  0
LINE
  5
5103C
  8
0
  6
BYBLOCK
 62
     0
 10
235446.1348640823
 20
37465.946864164063
 30
0.0
 11
235421.1348640823
 21
37615.946864164063
 31
0.0
  0
LINE
  5
5103D
  8
0
  6
BYBLOCK
 62
     0
 10
235446.1348640823
 20
37465.946864164063
 30
0.0
 11
235446.1348640823
 21
37615.946864164063
 31
0.0
  0
LINE
  5
5103E
  8
0
  6
BYBLOCK
 62
     0
 10
235421.1348640823
 20
39230.946864164041
 30
0.0
 11
235446.1348640823
 21
39380.946864164041
 31
0.0
  0
LINE
  5
5103F
  8
0
  6
BYBLOCK
 62
     0
 10
235446.1348640823
 20
39380.946864164041
 30
0.0
 11
235471.1348640823
 21
39230.946864164041
 31
0.0
  0
LINE
  5
51040
  8
0
  6
BYBLOCK
 62
     0
 10
235446.1348640823
 20
39380.946864164041
 30
0.0
 11
235446.1348640823
 21
39230.946864164041
 31
0.0
  0
TEXT
  5
51041
  8
D-STR-DIM_寸法_
  6
CONTINUOUS
 10
232387.43067264909
 20
35231.43834856496
 30
0.0
 40
300.0
  1
383
  7
ＭＳゴシック
1001
ACAD
1000
MTEXTBEGIN
1070
    73
1070
     1
1070
    44
1040
1.0
1070
    74
1070
     0
1000
MTEXTEND
  0
LINE
  5
51042
  8
0
  6
BYBLOCK
 62
     0
 10
231869.27077417189
 20
35156.43834856496
 30
0.0
 11
231719.27077417189
 21
35181.43834856496
 31
0.0
  0
LINE
  5
51043
  8
0
  6
BYBLOCK
 62
     0
 10
231719.27077417189
 20
35181.43834856496
 30
0.0
 11
231869.27077417189
 21
35206.43834856496
 31
0.0
  0
LINE
  5
51044
  8
0
  6
BYBLOCK
 62
     0
 10
231719.27077417189
 20
35181.43834856496
 30
0.0
 11
231869.27077417189
 21
35181.43834856496
 31
0.0
  0
LINE
  5
51045
  8
0
  6
BYBLOCK
 62
     0
 10
233484.27077417189
 20
35206.43834856496
 30
0.0
 11
233634.27077417189
 21
35181.43834856496
 31
0.0
  0
LINE
  5
51046
  8
0
  6
BYBLOCK
 62
     0
 10
233634.27077417189
 20
35181.43834856496
 30
0.0
 11
233484.27077417189
 21
35156.43834856496
 31
0.0
  0
LINE
  5
51047
  8
0
  6
BYBLOCK
 62
     0
 10
233634.27077417189
 20
35181.43834856496
 30
0.0
 11
233484.27077417189
 21
35181.43834856496
 31
0.0
  0
TEXT
  5
51048
  8
D-STR-DIM_寸法_
  6
CONTINUOUS
 10
230698.5943511746
 20
33149.503600819851
 30
0.0
 40
300.0
  1
350
 50
90.0
  7
ＭＳゴシック
1001
ACAD
1000
MTEXTBEGIN
1070
    73
1070
     1
1070
    44
1040
1.0
1070
    74
1070
     0
1000
MTEXTEND
  0
LINE
  5
51049
  8
0
  6
BYBLOCK
 62
     0
 10
230773.5943511746
 20
32717.650808941649
 30
0.0
 11
230748.5943511746
 21
32567.650808941649
 31
0.0
  0
LINE
  5
5104A
  8
0
  6
BYBLOCK
 62
     0
 10
230748.5943511746
 20
32567.650808941649
 30
0.0
 11
230723.5943511746
 21
32717.650808941649
 31
0.0
  0
LINE
  5
5104B
  8
0
  6
BYBLOCK
 62
     0
 10
230748.5943511746
 20
32567.650808941649
 30
0.0
 11
230748.5943511746
 21
32717.650808941649
 31
0.0
  0
LINE
  5
5104C
  8
0
  6
BYBLOCK
 62
     0
 10
230723.5943511746
 20
34167.650808941653
 30
0.0
 11
230748.5943511746
 21
34317.650808941653
 31
0.0
  0
LINE
  5
5104D
  8
0
  6
BYBLOCK
 62
     0
 10
230748.5943511746
 20
34317.650808941653
 30
0.0
 11
230773.5943511746
 21
34167.650808941653
 31
0.0
  0
LINE
  5
5104E
  8
0
  6
BYBLOCK
 62
     0
 10
230748.5943511746
 20
34317.650808941653
 30
0.0
 11
230748.5943511746
 21
34167.650808941653
 31
0.0
  0
LINE
  5
5104F
  8
0
  6
BYBLOCK
 62
     0
 10
230875.0432598145
 20
26153.907431152202
 30
0.0
 11
230850.0432598145
 21
26003.907431152202
 31
0.0
  0
LINE
  5
51050
  8
0
  6
BYBLOCK
 62
     0
 10
230850.0432598145
 20
26003.907431152202
 30
0.0
 11
230825.0432598145
 21
26153.907431152202
 31
0.0
  0
LINE
  5
51051
  8
0
  6
BYBLOCK
 62
     0
 10
230850.0432598145
 20
26003.907431152202
 30
0.0
 11
230850.0432598145
 21
26153.907431152202
 31
0.0
  0
LINE
  5
51052
  8
0
  6
BYBLOCK
 62
     0
 10
230825.0432598145
 20
26353.907431152202
 30
0.0
 11
230850.0432598145
 21
26503.907431152202
 31
0.0
  0
LINE
  5
51053
  8
0
  6
BYBLOCK
 62
     0
 10
230850.0432598145
 20
26503.907431152202
 30
0.0
 11
230875.0432598145
 21
26353.907431152202
 31
0.0
  0
LINE
  5
51054
  8
0
  6
BYBLOCK
 62
     0
 10
230850.0432598145
 20
26503.907431152202
 30
0.0
 11
230850.0432598145
 21
26353.907431152202
 31
0.0
  0
TEXT
  5
51055
  8
D-STR-DIM_寸法_
  6
CONTINUOUS
 10
230675.0432598145
 20
25950.100324553248
 30
0.0
 40
300.0
  1
100
 50
90.0
  7
ＭＳゴシック
1001
ACAD
1000
MTEXTBEGIN
1070
    73
1070
     1
1070
    44
1040
1.0
1070
    74
1070
     0
1000
MTEXTEND
  0
TEXT
  5
51056
  8
D-STR-DIM_寸法_
  6
CONTINUOUS
 10
231630.16638121
 20
27238.439066616462
 30
0.0
 40
300.0
  1
300
 50
45.0
  7
ＭＳゴシック
1001
ACAD
1000
MTEXTBEGIN
1070
    73
1070
     1
1070
    44
1040
1.0
1070
    74
1070
     0
1000
MTEXTEND
  0
LINE
  5
51057
  8
0
  6
BYBLOCK
 62
     0
 10
231466.55178572569
 20
26968.758453954339
 30
0.0
 11
231342.808099018
 21
26880.370106306022
 31
0.0
  0
LINE
  5
51058
  8
0
  6
BYBLOCK
 62
     0
 10
231342.808099018
 20
26880.370106306022
 30
0.0
 11
231431.19644666629
 21
27004.113793013668
 31
0.0
  0
LINE
  5
51059
  8
0
  6
BYBLOCK
 62
     0
 10
231342.808099018
 20
26880.370106306022
 30
0.0
 11
231448.87411619601
 21
26986.436123484
 31
0.0
  0
LINE
  5
5105A
  8
0
  6
BYBLOCK
 62
     0
 10
232279.0644123104
 20
27851.981758657708
 30
0.0
 11
232402.808099018
 21
27940.370106306022
 31
0.0
  0
LINE
  5
5105B
  8
0
  6
BYBLOCK
 62
     0
 10
232402.808099018
 20
27940.370106306022
 30
0.0
 11
232314.41975136971
 21
27816.626419598379
 31
0.0
  0
LINE
  5
5105C
  8
0
  6
BYBLOCK
 62
     0
 10
232402.808099018
 20
27940.370106306022
 30
0.0
 11
232296.74208184
 21
27834.30408912804
 31
0.0
  0
TEXT
  5
5105D
  8
D-STR-DIM_寸法_
  6
CONTINUOUS
 10
233235.16150971479
 20
39393.179920133218
 30
0.0
 40
300.0
  1
400
 50
315.0
  7
ＭＳゴシック
1001
ACAD
1000
MTEXTBEGIN
1070
    73
1070
     1
1070
    44
1040
1.0
1070
    74
1070
     0
1000
MTEXTEND
  0
LINE
  5
5105E
  8
0
  6
BYBLOCK
 62
     0
 10
232786.36567851689
 20
39735.909734153051
 30
0.0
 11
232697.9773308686
 21
39859.65342086069
 31
0.0
  0
LINE
  5
5105F
  8
0
  6
BYBLOCK
 62
     0
 10
232697.9773308686
 20
39859.65342086069
 30
0.0
 11
232821.7210175762
 21
39771.265073212373
 31
0.0
  0
LINE
  5
51060
  8
0
  6
BYBLOCK
 62
     0
 10
232697.9773308686
 20
39859.65342086069
 30
0.0
 11
232804.0433480466
 21
39753.587403682708
 31
0.0
  0
LINE
  5
51061
  8
0
  6
BYBLOCK
 62
     0
 10
234024.58898322031
 20
38568.397107568337
 30
0.0
 11
234112.9773308686
 21
38444.65342086069
 31
0.0
  0
LINE
  5
51062
  8
0
  6
BYBLOCK
 62
     0
 10
234112.9773308686
 20
38444.65342086069
 30
0.0
 11
233989.233644161
 21
38533.041768509007
 31
0.0
  0
LINE
  5
51063
  8
0
  6
BYBLOCK
 62
     0
 10
234112.9773308686
 20
38444.65342086069
 30
0.0
 11
234006.91131369071
 21
38550.719438038672
 31
0.0
  0
TEXT
  5
51064
  8
D-STR-DIM_寸法_
  6
CONTINUOUS
 10
232209.16925132929
 20
25273.57459795941
 30
0.0
 40
300.0
  1
312
  7
ＭＳゴシック
1001
ACAD
1000
MTEXTBEGIN
1070
    73
1070
     1
1070
    44
1040
1.0
1070
    74
1070
     0
1000
MTEXTEND
  0
LINE
  5
51065
  8
0
  6
BYBLOCK
 62
     0
 10
231869.27077417189
 20
25198.57459795941
 30
0.0
 11
231719.27077417189
 21
25223.57459795941
 31
0.0
  0
LINE
  5
51066
  8
0
  6
BYBLOCK
 62
     0
 10
231719.27077417189
 20
25223.57459795941
 30
0.0
 11
231869.27077417189
 21
25248.57459795941
 31
0.0
  0
LINE
  5
51067
  8
0
  6
BYBLOCK
 62
     0
 10
231719.27077417189
 20
25223.57459795941
 30
0.0
 11
231869.27077417189
 21
25223.57459795941
 31
0.0
  0
LINE
  5
51068
  8
0
  6
BYBLOCK
 62
     0
 10
233129.2707741718
 20
25248.57459795941
 30
0.0
 11
233279.2707741718
 21
25223.57459795941
 31
0.0
  0
LINE
  5
51069
  8
0
  6
BYBLOCK
 62
     0
 10
233279.2707741718
 20
25223.57459795941
 30
0.0
 11
233129.2707741718
 21
25198.57459795941
 31
0.0
  0
LINE
  5
5106A
  8
0
  6
BYBLOCK
 62
     0
 10
233279.2707741718
 20
25223.57459795941
 30
0.0
 11
233129.2707741718
 21
25223.57459795941
 31
0.0
  0
TEXT
  5
5106B
  8
D-STR-DIM_寸法_
  6
CONTINUOUS
 10
233998.53781056721
 20
26493.80590830959
 30
0.0
 40
300.0
  1
312
 50
90.0
  7
ＭＳゴシック
1001
ACAD
1000
MTEXTBEGIN
1070
    73
1070
     1
1070
    44
1040
1.0
1070
    74
1070
     0
1000
MTEXTEND
  0
LINE
  5
5106C
  8
0
  6
BYBLOCK
 62
     0
 10
234073.53781056721
 20
26153.907431152202
 30
0.0
 11
234048.53781056721
 21
26003.907431152202
 31
0.0
  0
LINE
  5
5106D
  8
0
  6
BYBLOCK
 62
     0
 10
234048.53781056721
 20
26003.907431152202
 30
0.0
 11
234023.53781056721
 21
26153.907431152202
 31
0.0
  0
LINE
  5
5106E
  8
0
  6
BYBLOCK
 62
     0
 10
234048.53781056721
 20
26003.907431152202
 30
0.0
 11
234048.53781056721
 21
26153.907431152202
 31
0.0
  0
LINE
  5
5106F
  8
0
  6
BYBLOCK
 62
     0
 10
234023.53781056721
 20
27413.907431152202
 30
0.0
 11
234048.53781056721
 21
27563.907431152202
 31
0.0
  0
LINE
  5
51070
  8
0
  6
BYBLOCK
 62
     0
 10
234048.53781056721
 20
27563.907431152202
 30
0.0
 11
234073.53781056721
 21
27413.907431152202
 31
0.0
  0
LINE
  5
51071
  8
0
  6
BYBLOCK
 62
     0
 10
234048.53781056721
 20
27563.907431152202
 30
0.0
 11
234048.53781056721
 21
27413.907431152202
 31
0.0
  0
TEXT
  5
51072
  8
D-STR-DIM_寸法_
  6
CONTINUOUS
 10
235322.30277288239
 20
26493.80590830959
 30
0.0
 40
300.0
  1
312
 50
90.0
  7
ＭＳゴシック
1001
ACAD
1000
MTEXTBEGIN
1070
    73
1070
     1
1070
    44
1040
1.0
1070
    74
1070
     0
1000
MTEXTEND
  0
LINE
  5
51073
  8
0
  6
BYBLOCK
 62
     0
 10
235397.30277288239
 20
26153.907431152202
 30
0.0
 11
235372.30277288239
 21
26003.907431152202
 31
0.0
  0
LINE
  5
51074
  8
0
  6
BYBLOCK
 62
     0
 10
235372.30277288239
 20
26003.907431152202
 30
0.0
 11
235347.30277288239
 21
26153.907431152202
 31
0.0
  0
LINE
  5
51075
  8
0
  6
BYBLOCK
 62
     0
 10
235372.30277288239
 20
26003.907431152202
 30
0.0
 11
235372.30277288239
 21
26153.907431152202
 31
0.0
  0
LINE
  5
51076
  8
0
  6
BYBLOCK
 62
     0
 10
235347.30277288239
 20
27413.907431152202
 30
0.0
 11
235372.30277288239
 21
27563.907431152202
 31
0.0
  0
LINE
  5
51077
  8
0
  6
BYBLOCK
 62
     0
 10
235372.30277288239
 20
27563.907431152202
 30
0.0
 11
235397.30277288239
 21
27413.907431152202
 31
0.0
  0
LINE
  5
51078
  8
0
  6
BYBLOCK
 62
     0
 10
235372.30277288239
 20
27563.907431152202
 30
0.0
 11
235372.30277288239
 21
27413.907431152202
 31
0.0
  0
TEXT
  5
51079
  8
D-STR-DIM_寸法_
  6
CONTINUOUS
 10
236728.23826204351
 20
25273.57459795941
 30
0.0
 40
300.0
  1
350
  7
ＭＳゴシック
1001
ACAD
1000
MTEXTBEGIN
1070
    73
1070
     1
1070
    44
1040
1.0
1070
    74
1070
     0
1000
MTEXTEND
  0
LINE
  5
5107A
  8
0
  6
BYBLOCK
 62
     0
 10
236296.38547016541
 20
25198.57459795941
 30
0.0
 11
236146.38547016529
 21
25223.57459795941
 31
0.0
  0
LINE
  5
5107B
  8
0
  6
BYBLOCK
 62
     0
 10
236146.38547016529
 20
25223.57459795941
 30
0.0
 11
236296.38547016541
 21
25248.57459795941
 31
0.0
  0
LINE
  5
5107C
  8
0
  6
BYBLOCK
 62
     0
 10
236146.38547016529
 20
25223.57459795941
 30
0.0
 11
236296.38547016541
 21
25223.57459795941
 31
0.0
  0
LINE
  5
5107D
  8
0
  6
BYBLOCK
 62
     0
 10
237746.3854701652
 20
25248.57459795941
 30
0.0
 11
237896.3854701652
 21
25223.57459795941
 31
0.0
  0
LINE
  5
5107E
  8
0
  6
BYBLOCK
 62
     0
 10
237896.3854701652
 20
25223.57459795941
 30
0.0
 11
237746.3854701652
 21
25198.57459795941
 31
0.0
  0
LINE
  5
5107F
  8
0
  6
BYBLOCK
 62
     0
 10
237896.3854701652
 20
25223.57459795941
 30
0.0
 11
237746.3854701652
 21
25223.57459795941
 31
0.0
  0
TEXT
  5
51080
  8
D-STR-DIM_寸法_
  6
CONTINUOUS
 10
230800.0432598145
 20
21990.858789259069
 30
0.0
 40
300.0
  1
350
 50
90.0
  7
ＭＳゴシック
1001
ACAD
1000
MTEXTBEGIN
1070
    73
1070
     1
1070
    44
1040
1.0
1070
    74
1070
     0
1000
MTEXTEND
  0
LINE
  5
51081
  8
0
  6
BYBLOCK
 62
     0
 10
230875.0432598145
 20
21559.005997380871
 30
0.0
 11
230850.0432598145
 21
21409.005997380871
 31
0.0
  0
LINE
  5
51082
  8
0
  6
BYBLOCK
 62
     0
 10
230850.0432598145
 20
21409.005997380871
 30
0.0
 11
230825.0432598145
 21
21559.005997380871
 31
0.0
  0
LINE
  5
51083
  8
0
  6
BYBLOCK
 62
     0
 10
230850.0432598145
 20
21409.005997380871
 30
0.0
 11
230850.0432598145
 21
21559.005997380871
 31
0.0
  0
LINE
  5
51084
  8
0
  6
BYBLOCK
 62
     0
 10
230825.0432598145
 20
23009.005997380871
 30
0.0
 11
230850.0432598145
 21
23159.005997380871
 31
0.0
  0
LINE
  5
51085
  8
0
  6
BYBLOCK
 62
     0
 10
230850.0432598145
 20
23159.005997380871
 30
0.0
 11
230875.0432598145
 21
23009.005997380871
 31
0.0
  0
LINE
  5
51086
  8
0
  6
BYBLOCK
 62
     0
 10
230850.0432598145
 20
23159.005997380871
 30
0.0
 11
230850.0432598145
 21
23009.005997380871
 31
0.0
  0
TEXT
  5
51087
  8
D-STR-DIM_寸法_
  6
CONTINUOUS
 10
232209.16925132929
 20
23868.02743672422
 30
0.0
 40
300.0
  1
312
  7
ＭＳゴシック
1001
ACAD
1000
MTEXTBEGIN
1070
    73
1070
     1
1070
    44
1040
1.0
1070
    74
1070
     0
1000
MTEXTEND
  0
LINE
  5
51088
  8
0
  6
BYBLOCK
 62
     0
 10
231869.27077417189
 20
23793.02743672422
 30
0.0
 11
231719.27077417189
 21
23818.02743672422
 31
0.0
  0
LINE
  5
51089
  8
0
  6
BYBLOCK
 62
     0
 10
231719.27077417189
 20
23818.02743672422
 30
0.0
 11
231869.27077417189
 21
23843.02743672422
 31
0.0
  0
LINE
  5
5108A
  8
0
  6
BYBLOCK
 62
     0
 10
231719.27077417189
 20
23818.02743672422
 30
0.0
 11
231869.27077417189
 21
23818.02743672422
 31
0.0
  0
LINE
  5
5108B
  8
0
  6
BYBLOCK
 62
     0
 10
233129.2707741718
 20
23843.02743672422
 30
0.0
 11
233279.2707741718
 21
23818.02743672422
 31
0.0
  0
LINE
  5
5108C
  8
0
  6
BYBLOCK
 62
     0
 10
233279.2707741718
 20
23818.02743672422
 30
0.0
 11
233129.2707741718
 21
23793.02743672422
 31
0.0
  0
LINE
  5
5108D
  8
0
  6
BYBLOCK
 62
     0
 10
233279.2707741718
 20
23818.02743672422
 30
0.0
 11
233129.2707741718
 21
23818.02743672422
 31
0.0
  0
TEXT
  5
5108E
  8
D-STR-DIM_寸法_
  6
CONTINUOUS
 10
252993.3075075011
 20
38011.391026600628
 30
0.0
 40
300.0
  1
433
 50
90.0
  7
ＭＳゴシック
1001
ACAD
1000
MTEXTBEGIN
1070
    73
1070
     1
1070
    44
1040
1.0
1070
    74
1070
     0
1000
MTEXTEND
  0
LINE
  5
5108F
  8
0
  6
BYBLOCK
 62
     0
 10
253068.3075075011
 20
37365.946864164041
 30
0.0
 11
253043.3075075011
 21
37215.946864164041
 31
0.0
  0
LINE
  5
51090
  8
0
  6
BYBLOCK
 62
     0
 10
253043.3075075011
 20
37215.946864164041
 30
0.0
 11
253018.3075075011
 21
37365.946864164041
 31
0.0
  0
LINE
  5
51091
  8
0
  6
BYBLOCK
 62
     0
 10
253043.3075075011
 20
37215.946864164041
 30
0.0
 11
253043.3075075011
 21
37365.946864164041
 31
0.0
  0
LINE
  5
51092
  8
0
  6
BYBLOCK
 62
     0
 10
253018.3075075011
 20
39230.946864164041
 30
0.0
 11
253043.3075075011
 21
39380.946864164041
 31
0.0
  0
LINE
  5
51093
  8
0
  6
BYBLOCK
 62
     0
 10
253043.3075075011
 20
39380.946864164041
 30
0.0
 11
253068.3075075011
 21
39230.946864164041
 31
0.0
  0
LINE
  5
51094
  8
0
  6
BYBLOCK
 62
     0
 10
253043.3075075011
 20
39380.946864164041
 30
0.0
 11
253043.3075075011
 21
39230.946864164041
 31
0.0
  0
LINE
  5
51095
  8
0
  6
BYBLOCK
 62
     0
 10
254235.89213814811
 20
40035.905691083208
 30
0.0
 11
254385.89213814811
 21
40010.905691083208
 31
0.0
  0
LINE
  5
51096
  8
0
  6
BYBLOCK
 62
     0
 10
254385.89213814811
 20
40010.905691083208
 30
0.0
 11
254235.89213814811
 21
39985.905691083222
 31
0.0
  0
LINE
  5
51097
  8
0
  6
BYBLOCK
 62
     0
 10
254385.89213814811
 20
40010.905691083208
 30
0.0
 11
254235.89213814811
 21
40010.905691083208
 31
0.0
  0
LINE
  5
51098
  8
0
  6
BYBLOCK
 62
     0
 10
254035.89213814811
 20
39985.905691083222
 30
0.0
 11
253885.89213814811
 21
40010.905691083208
 31
0.0
  0
LINE
  5
51099
  8
0
  6
BYBLOCK
 62
     0
 10
253885.89213814811
 20
40010.905691083208
 30
0.0
 11
254035.89213814811
 21
40035.905691083208
 31
0.0
  0
LINE
  5
5109A
  8
0
  6
BYBLOCK
 62
     0
 10
253885.89213814811
 20
40010.905691083208
 30
0.0
 11
254035.89213814811
 21
40010.905691083208
 31
0.0
  0
TEXT
  5
5109B
  8
D-STR-DIM_寸法_
  6
CONTINUOUS
 10
253832.0850315491
 20
40185.905691083222
 30
0.0
 40
300.0
  1
100
  7
ＭＳゴシック
1001
ACAD
1000
MTEXTBEGIN
1070
    73
1070
     1
1070
    44
1040
1.0
1070
    74
1070
     0
1000
MTEXTEND
  0
TEXT
  5
5109C
  8
D-STR-DIM_寸法_
  6
CONTINUOUS
 10
255408.90224147899
 20
39400.299287921378
 30
0.0
 40
300.0
  1
400
 50
315.0
  7
ＭＳゴシック
1001
ACAD
1000
MTEXTBEGIN
1070
    73
1070
     1
1070
    44
1040
1.0
1070
    74
1070
     0
1000
MTEXTEND
  0
LINE
  5
5109D
  8
0
  6
BYBLOCK
 62
     0
 10
254960.10641028109
 20
39743.029101941189
 30
0.0
 11
254871.7180626328
 21
39866.772788648843
 31
0.0
  0
LINE
  5
5109E
  8
0
  6
BYBLOCK
 62
     0
 10
254871.7180626328
 20
39866.772788648843
 30
0.0
 11
254995.46174934049
 21
39778.384441000519
 31
0.0
  0
LINE
  5
5109F
  8
0
  6
BYBLOCK
 62
     0
 10
254871.7180626328
 20
39866.772788648843
 30
0.0
 11
254977.78407981081
 21
39760.706771470846
 31
0.0
  0
LINE
  5
510A0
  8
0
  6
BYBLOCK
 62
     0
 10
256198.32971498449
 20
38575.51647535649
 30
0.0
 11
256286.7180626328
 21
38451.772788648843
 31
0.0
  0
LINE
  5
510A1
  8
0
  6
BYBLOCK
 62
     0
 10
256286.7180626328
 20
38451.772788648843
 30
0.0
 11
256162.9743759252
 21
38540.161136297153
 31
0.0
  0
LINE
  5
510A2
  8
0
  6
BYBLOCK
 62
     0
 10
256286.7180626328
 20
38451.772788648843
 30
0.0
 11
256180.65204545489
 21
38557.838805826817
 31
0.0
  0
TEXT
  5
510A3
  8
D-STR-DIM_寸法_
  6
CONTINUOUS
 10
256437.9061448196
 20
37287.139757565099
 30
0.0
 40
300.0
  1
150
 50
90.0
  7
ＭＳゴシック
1001
ACAD
1000
MTEXTBEGIN
1070
    73
1070
     1
1070
    44
1040
1.0
1070
    74
1070
     0
1000
MTEXTEND
  0
LINE
  5
510A4
  8
0
  6
BYBLOCK
 62
     0
 10
256462.9061448196
 20
37815.946864164041
 30
0.0
 11
256487.9061448196
 21
37965.946864164041
 31
0.0
  0
LINE
  5
510A5
  8
0
  6
BYBLOCK
 62
     0
 10
256487.9061448196
 20
37965.946864164041
 30
0.0
 11
256512.9061448196
 21
37815.946864164041
 31
0.0
  0
LINE
  5
510A6
  8
0
  6
BYBLOCK
 62
     0
 10
256487.9061448196
 20
37965.946864164041
 30
0.0
 11
256487.9061448196
 21
37815.946864164041
 31
0.0
  0
LINE
  5
510A7
  8
0
  6
BYBLOCK
 62
     0
 10
256512.9061448196
 20
37365.946864164041
 30
0.0
 11
256487.9061448196
 21
37215.946864164041
 31
0.0
  0
LINE
  5
510A8
  8
0
  6
BYBLOCK
 62
     0
 10
256487.9061448196
 20
37215.946864164041
 30
0.0
 11
256462.9061448196
 21
37365.946864164041
 31
0.0
  0
LINE
  5
510A9
  8
0
  6
BYBLOCK
 62
     0
 10
256487.9061448196
 20
37215.946864164041
 30
0.0
 11
256487.9061448196
 21
37365.946864164041
 31
0.0
  0
TEXT
  5
510AA
  8
D-STR-DIM_寸法_
  6
CONTINUOUS
 10
254554.05203662519
 20
36622.979924693936
 30
0.0
 40
300.0
  1
383
  7
ＭＳゴシック
1001
ACAD
1000
MTEXTBEGIN
1070
    73
1070
     1
1070
    44
1040
1.0
1070
    74
1070
     0
1000
MTEXTEND
  0
LINE
  5
510AB
  8
0
  6
BYBLOCK
 62
     0
 10
254035.89213814811
 20
36547.979924693936
 30
0.0
 11
253885.89213814811
 21
36572.979924693936
 31
0.0
  0
LINE
  5
510AC
  8
0
  6
BYBLOCK
 62
     0
 10
253885.89213814811
 20
36572.979924693936
 30
0.0
 11
254035.89213814811
 21
36597.979924693936
 31
0.0
  0
LINE
  5
510AD
  8
0
  6
BYBLOCK
 62
     0
 10
253885.89213814811
 20
36572.979924693936
 30
0.0
 11
254035.89213814811
 21
36572.979924693936
 31
0.0
  0
LINE
  5
510AE
  8
0
  6
BYBLOCK
 62
     0
 10
255650.89213814799
 20
36597.979924693936
 30
0.0
 11
255800.89213814799
 21
36572.979924693936
 31
0.0
  0
LINE
  5
510AF
  8
0
  6
BYBLOCK
 62
     0
 10
255800.89213814799
 20
36572.979924693936
 30
0.0
 11
255650.89213814799
 21
36547.979924693936
 31
0.0
  0
LINE
  5
510B0
  8
0
  6
BYBLOCK
 62
     0
 10
255800.89213814799
 20
36572.979924693936
 30
0.0
 11
255650.89213814799
 21
36572.979924693936
 31
0.0
  0
TEXT
  5
510B1
  8
D-STR-DIM_寸法_
  6
CONTINUOUS
 10
258648.1793330349
 20
38011.391026600628
 30
0.0
 40
300.0
  1
433
 50
90.0
  7
ＭＳゴシック
1001
ACAD
1000
MTEXTBEGIN
1070
    73
1070
     1
1070
    44
1040
1.0
1070
    74
1070
     0
1000
MTEXTEND
  0
LINE
  5
510B2
  8
0
  6
BYBLOCK
 62
     0
 10
258723.1793330349
 20
37365.946864164041
 30
0.0
 11
258698.1793330349
 21
37215.946864164041
 31
0.0
  0
LINE
  5
510B3
  8
0
  6
BYBLOCK
 62
     0
 10
258698.1793330349
 20
37215.946864164041
 30
0.0
 11
258673.1793330349
 21
37365.946864164041
 31
0.0
  0
LINE
  5
510B4
  8
0
  6
BYBLOCK
 62
     0
 10
258698.1793330349
 20
37215.946864164041
 30
0.0
 11
258698.1793330349
 21
37365.946864164041
 31
0.0
  0
LINE
  5
510B5
  8
0
  6
BYBLOCK
 62
     0
 10
258673.1793330349
 20
39230.946864164041
 30
0.0
 11
258698.1793330349
 21
39380.946864164041
 31
0.0
  0
LINE
  5
510B6
  8
0
  6
BYBLOCK
 62
     0
 10
258698.1793330349
 20
39380.946864164041
 30
0.0
 11
258723.1793330349
 21
39230.946864164041
 31
0.0
  0
LINE
  5
510B7
  8
0
  6
BYBLOCK
 62
     0
 10
258698.1793330349
 20
39380.946864164041
 30
0.0
 11
258698.1793330349
 21
39230.946864164041
 31
0.0
  0
TEXT
  5
510B8
  8
D-STR-DIM_寸法_
  6
CONTINUOUS
 10
260110.52605268749
 20
36622.979924693936
 30
0.0
 40
300.0
  1
350
  7
ＭＳゴシック
1001
ACAD
1000
MTEXTBEGIN
1070
    73
1070
     1
1070
    44
1040
1.0
1070
    74
1070
     0
1000
MTEXTEND
  0
LINE
  5
510B9
  8
0
  6
BYBLOCK
 62
     0
 10
259678.6732608093
 20
36547.979924693936
 30
0.0
 11
259528.6732608093
 21
36572.979924693936
 31
0.0
  0
LINE
  5
510BA
  8
0
  6
BYBLOCK
 62
     0
 10
259528.6732608093
 20
36572.979924693936
 30
0.0
 11
259678.6732608093
 21
36597.979924693936
 31
0.0
  0
LINE
  5
510BB
  8
0
  6
BYBLOCK
 62
     0
 10
259528.6732608093
 20
36572.979924693936
 30
0.0
 11
259678.6732608093
 21
36572.979924693936
 31
0.0
  0
LINE
  5
510BC
  8
0
  6
BYBLOCK
 62
     0
 10
261128.67326080939
 20
36597.979924693936
 30
0.0
 11
261278.67326080939
 21
36572.979924693936
 31
0.0
  0
LINE
  5
510BD
  8
0
  6
BYBLOCK
 62
     0
 10
261278.67326080939
 20
36572.979924693936
 30
0.0
 11
261128.67326080939
 21
36547.979924693936
 31
0.0
  0
LINE
  5
510BE
  8
0
  6
BYBLOCK
 62
     0
 10
261278.67326080939
 20
36572.979924693936
 30
0.0
 11
261128.67326080939
 21
36572.979924693936
 31
0.0
  0
TEXT
  5
510BF
  8
D-STR-DIM_寸法_
  6
CONTINUOUS
 10
252993.3075075011
 20
33149.503600819859
 30
0.0
 40
300.0
  1
350
 50
90.0
  7
ＭＳゴシック
1001
ACAD
1000
MTEXTBEGIN
1070
    73
1070
     1
1070
    44
1040
1.0
1070
    74
1070
     0
1000
MTEXTEND
  0
LINE
  5
510C0
  8
0
  6
BYBLOCK
 62
     0
 10
253068.3075075011
 20
32717.650808941649
 30
0.0
 11
253043.3075075011
 21
32567.650808941649
 31
0.0
  0
LINE
  5
510C1
  8
0
  6
BYBLOCK
 62
     0
 10
253043.3075075011
 20
32567.650808941649
 30
0.0
 11
253018.3075075011
 21
32717.650808941649
 31
0.0
  0
LINE
  5
510C2
  8
0
  6
BYBLOCK
 62
     0
 10
253043.3075075011
 20
32567.650808941649
 30
0.0
 11
253043.3075075011
 21
32717.650808941649
 31
0.0
  0
LINE
  5
510C3
  8
0
  6
BYBLOCK
 62
     0
 10
253018.3075075011
 20
34167.650808941653
 30
0.0
 11
253043.3075075011
 21
34317.650808941653
 31
0.0
  0
LINE
  5
510C4
  8
0
  6
BYBLOCK
 62
     0
 10
253043.3075075011
 20
34317.650808941653
 30
0.0
 11
253068.3075075011
 21
34167.650808941653
 31
0.0
  0
LINE
  5
510C5
  8
0
  6
BYBLOCK
 62
     0
 10
253043.3075075011
 20
34317.650808941653
 30
0.0
 11
253043.3075075011
 21
34167.650808941653
 31
0.0
  0
LINE
  5
510C6
  8
0
  6
BYBLOCK
 62
     0
 10
255095.89213814799
 20
27887.00799612515
 30
0.0
 11
254945.89213814799
 21
27912.00799612515
 31
0.0
  0
LINE
  5
510C7
  8
0
  6
BYBLOCK
 62
     0
 10
254945.89213814799
 20
27912.00799612515
 30
0.0
 11
255095.89213814799
 21
27937.00799612515
 31
0.0
  0
LINE
  5
510C8
  8
0
  6
BYBLOCK
 62
     0
 10
254945.89213814799
 20
27912.00799612515
 30
0.0
 11
255095.89213814799
 21
27912.00799612515
 31
0.0
  0
LINE
  5
510C9
  8
0
  6
BYBLOCK
 62
     0
 10
255295.89213814799
 20
27937.00799612515
 30
0.0
 11
255445.89213814799
 21
27912.00799612515
 31
0.0
  0
LINE
  5
510CA
  8
0
  6
BYBLOCK
 62
     0
 10
255445.89213814799
 20
27912.00799612515
 30
0.0
 11
255295.89213814799
 21
27887.00799612515
 31
0.0
  0
LINE
  5
510CB
  8
0
  6
BYBLOCK
 62
     0
 10
255445.89213814799
 20
27912.00799612515
 30
0.0
 11
255295.89213814799
 21
27912.00799612515
 31
0.0
  0
TEXT
  5
510CC
  8
D-STR-DIM_寸法_
  6
CONTINUOUS
 10
254892.0850315491
 20
28087.00799612515
 30
0.0
 40
300.0
  1
100
  7
ＭＳゴシック
1001
ACAD
1000
MTEXTBEGIN
1070
    73
1070
     1
1070
    44
1040
1.0
1070
    74
1070
     0
1000
MTEXTEND
  0
TEXT
  5
510CD
  8
D-STR-DIM_寸法_
  6
CONTINUOUS
 10
252993.3075075011
 20
25825.100324553259
 30
0.0
 40
300.0
  1
150
 50
90.0
  7
ＭＳゴシック
1001
ACAD
1000
MTEXTBEGIN
1070
    73
1070
     1
1070
    44
1040
1.0
1070
    74
1070
     0
1000
MTEXTEND
  0
LINE
  5
510CE
  8
0
  6
BYBLOCK
 62
     0
 10
253068.3075075011
 20
25903.907431152202
 30
0.0
 11
253043.3075075011
 21
25753.907431152202
 31
0.0
  0
LINE
  5
510CF
  8
0
  6
BYBLOCK
 62
     0
 10
253043.3075075011
 20
25753.907431152202
 30
0.0
 11
253018.3075075011
 21
25903.907431152202
 31
0.0
  0
LINE
  5
510D0
  8
0
  6
BYBLOCK
 62
     0
 10
253043.3075075011
 20
25753.907431152202
 30
0.0
 11
253043.3075075011
 21
25903.907431152202
 31
0.0
  0
LINE
  5
510D1
  8
0
  6
BYBLOCK
 62
     0
 10
253018.3075075011
 20
26353.907431152202
 30
0.0
 11
253043.3075075011
 21
26503.907431152202
 31
0.0
  0
LINE
  5
510D2
  8
0
  6
BYBLOCK
 62
     0
 10
253043.3075075011
 20
26503.907431152202
 30
0.0
 11
253068.3075075011
 21
26353.907431152202
 31
0.0
  0
LINE
  5
510D3
  8
0
  6
BYBLOCK
 62
     0
 10
253043.3075075011
 20
26503.907431152202
 30
0.0
 11
253043.3075075011
 21
26353.907431152202
 31
0.0
  0
TEXT
  5
510D4
  8
D-STR-DIM_寸法_
  6
CONTINUOUS
 10
253651.90433825509
 20
27383.32247354748
 30
0.0
 40
300.0
  1
300
 50
45.0
  7
ＭＳゴシック
1001
ACAD
1000
MTEXTBEGIN
1070
    73
1070
     1
1070
    44
1040
1.0
1070
    74
1070
     0
1000
MTEXTEND
  0
LINE
  5
510D5
  8
0
  6
BYBLOCK
 62
     0
 10
253488.2897427709
 20
27113.64186088536
 30
0.0
 11
253364.54605606321
 21
27025.253513237039
 31
0.0
  0
LINE
  5
510D6
  8
0
  6
BYBLOCK
 62
     0
 10
253364.54605606321
 20
27025.253513237039
 30
0.0
 11
253452.93440371161
 21
27148.99719994469
 31
0.0
  0
LINE
  5
510D7
  8
0
  6
BYBLOCK
 62
     0
 10
253364.54605606321
 20
27025.253513237039
 30
0.0
 11
253470.61207324121
 21
27131.319530415021
 31
0.0
  0
LINE
  5
510D8
  8
0
  6
BYBLOCK
 62
     0
 10
254300.80236935549
 20
27996.865165588719
 30
0.0
 11
254424.54605606309
 21
28085.253513237039
 31
0.0
  0
LINE
  5
510D9
  8
0
  6
BYBLOCK
 62
     0
 10
254424.54605606309
 20
28085.253513237039
 30
0.0
 11
254336.1577084148
 21
27961.509826529389
 31
0.0
  0
LINE
  5
510DA
  8
0
  6
BYBLOCK
 62
     0
 10
254424.54605606309
 20
28085.253513237039
 30
0.0
 11
254318.48003888511
 21
27979.187496059061
 31
0.0
  0
TEXT
  5
510DB
  8
D-STR-DIM_寸法_
  6
CONTINUOUS
 10
256030.47123177769
 20
26368.805908309601
 30
0.0
 40
300.0
  1
362
 50
90.0
  7
ＭＳゴシック
1001
ACAD
1000
MTEXTBEGIN
1070
    73
1070
     1
1070
    44
1040
1.0
1070
    74
1070
     0
1000
MTEXTEND
  0
LINE
  5
510DC
  8
0
  6
BYBLOCK
 62
     0
 10
256105.47123177769
 20
25903.907431152202
 30
0.0
 11
256080.47123177769
 21
25753.907431152202
 31
0.0
  0
LINE
  5
510DD
  8
0
  6
BYBLOCK
 62
     0
 10
256080.47123177769
 20
25753.907431152202
 30
0.0
 11
256055.4712317776
 21
25903.907431152202
 31
0.0
  0
LINE
  5
510DE
  8
0
  6
BYBLOCK
 62
     0
 10
256080.47123177769
 20
25753.907431152202
 30
0.0
 11
256080.47123177769
 21
25903.907431152202
 31
0.0
  0
LINE
  5
510DF
  8
0
  6
BYBLOCK
 62
     0
 10
256055.4712317776
 20
27413.907431152191
 30
0.0
 11
256080.47123177769
 21
27563.90743115218
 31
0.0
  0
LINE
  5
510E0
  8
0
  6
BYBLOCK
 62
     0
 10
256080.47123177769
 20
27563.90743115218
 30
0.0
 11
256105.47123177769
 21
27413.907431152191
 31
0.0
  0
LINE
  5
510E1
  8
0
  6
BYBLOCK
 62
     0
 10
256080.47123177769
 20
27563.90743115218
 30
0.0
 11
256080.47123177769
 21
27413.907431152191
 31
0.0
  0
TEXT
  5
510E2
  8
D-STR-DIM_寸法_
  6
CONTINUOUS
 10
254375.79061530539
 20
25176.710033583629
 30
0.0
 40
300.0
  1
312
  7
ＭＳゴシック
1001
ACAD
1000
MTEXTBEGIN
1070
    73
1070
     1
1070
    44
1040
1.0
1070
    74
1070
     0
1000
MTEXTEND
  0
LINE
  5
510E3
  8
0
  6
BYBLOCK
 62
     0
 10
254035.89213814811
 20
25101.710033583629
 30
0.0
 11
253885.89213814811
 21
25126.710033583629
 31
0.0
  0
LINE
  5
510E4
  8
0
  6
BYBLOCK
 62
     0
 10
253885.89213814811
 20
25126.710033583629
 30
0.0
 11
254035.89213814811
 21
25151.710033583629
 31
0.0
  0
LINE
  5
510E5
  8
0
  6
BYBLOCK
 62
     0
 10
253885.89213814811
 20
25126.710033583629
 30
0.0
 11
254035.89213814811
 21
25126.710033583629
 31
0.0
  0
LINE
  5
510E6
  8
0
  6
BYBLOCK
 62
     0
 10
255295.89213814799
 20
25151.710033583629
 30
0.0
 11
255445.89213814799
 21
25126.710033583629
 31
0.0
  0
LINE
  5
510E7
  8
0
  6
BYBLOCK
 62
     0
 10
255445.89213814799
 20
25126.710033583629
 30
0.0
 11
255295.89213814799
 21
25101.710033583629
 31
0.0
  0
LINE
  5
510E8
  8
0
  6
BYBLOCK
 62
     0
 10
255445.89213814799
 20
25126.710033583629
 30
0.0
 11
255295.89213814799
 21
25126.710033583629
 31
0.0
  0
TEXT
  5
510E9
  8
D-STR-DIM_寸法_
  6
CONTINUOUS
 10
258712.59572277631
 20
26368.805908309601
 30
0.0
 40
300.0
  1
362
 50
90.0
  7
ＭＳゴシック
1001
ACAD
1000
MTEXTBEGIN
1070
    73
1070
     1
1070
    44
1040
1.0
1070
    74
1070
     0
1000
MTEXTEND
  0
LINE
  5
510EA
  8
0
  6
BYBLOCK
 62
     0
 10
258787.59572277631
 20
25903.907431152202
 30
0.0
 11
258762.59572277631
 21
25753.907431152202
 31
0.0
  0
LINE
  5
510EB
  8
0
  6
BYBLOCK
 62
     0
 10
258762.59572277631
 20
25753.907431152202
 30
0.0
 11
258737.59572277631
 21
25903.907431152202
 31
0.0
  0
LINE
  5
510EC
  8
0
  6
BYBLOCK
 62
     0
 10
258762.59572277631
 20
25753.907431152202
 30
0.0
 11
258762.59572277631
 21
25903.907431152202
 31
0.0
  0
LINE
  5
510ED
  8
0
  6
BYBLOCK
 62
     0
 10
258737.59572277631
 20
27413.907431152202
 30
0.0
 11
258762.59572277631
 21
27563.907431152202
 31
0.0
  0
LINE
  5
510EE
  8
0
  6
BYBLOCK
 62
     0
 10
258762.59572277631
 20
27563.907431152202
 30
0.0
 11
258787.59572277631
 21
27413.907431152202
 31
0.0
  0
LINE
  5
510EF
  8
0
  6
BYBLOCK
 62
     0
 10
258762.59572277631
 20
27563.907431152202
 30
0.0
 11
258762.59572277631
 21
27413.907431152202
 31
0.0
  0
TEXT
  5
510F0
  8
D-STR-DIM_寸法_
  6
CONTINUOUS
 10
260110.52605268749
 20
25176.710033583629
 30
0.0
 40
300.0
  1
350
  7
ＭＳゴシック
1001
ACAD
1000
MTEXTBEGIN
1070
    73
1070
     1
1070
    44
1040
1.0
1070
    74
1070
     0
1000
MTEXTEND
  0
LINE
  5
510F1
  8
0
  6
BYBLOCK
 62
     0
 10
259678.6732608093
 20
25101.710033583629
 30
0.0
 11
259528.6732608093
 21
25126.710033583629
 31
0.0
  0
LINE
  5
510F2
  8
0
  6
BYBLOCK
 62
     0
 10
259528.6732608093
 20
25126.710033583629
 30
0.0
 11
259678.6732608093
 21
25151.710033583629
 31
0.0
  0
LINE
  5
510F3
  8
0
  6
BYBLOCK
 62
     0
 10
259528.6732608093
 20
25126.710033583629
 30
0.0
 11
259678.6732608093
 21
25126.710033583629
 31
0.0
  0
LINE
  5
510F4
  8
0
  6
BYBLOCK
 62
     0
 10
261128.67326080939
 20
25151.710033583629
 30
0.0
 11
261278.67326080939
 21
25126.710033583629
 31
0.0
  0
LINE
  5
510F5
  8
0
  6
BYBLOCK
 62
     0
 10
261278.67326080939
 20
25126.710033583629
 30
0.0
 11
261128.67326080939
 21
25101.710033583629
 31
0.0
  0
LINE
  5
510F6
  8
0
  6
BYBLOCK
 62
     0
 10
261278.67326080939
 20
25126.710033583629
 30
0.0
 11
261128.67326080939
 21
25126.710033583629
 31
0.0
  0
TEXT
  5
510F7
  8
D-STR-DIM_寸法_
  6
CONTINUOUS
 10
254375.79061530539
 20
23873.626261180681
 30
0.0
 40
300.0
  1
312
  7
ＭＳゴシック
1001
ACAD
1000
MTEXTBEGIN
1070
    73
1070
     1
1070
    44
1040
1.0
1070
    74
1070
     0
1000
MTEXTEND
  0
LINE
  5
510F8
  8
0
  6
BYBLOCK
 62
     0
 10
254035.89213814811
 20
23798.626261180689
 30
0.0
 11
253885.89213814811
 21
23823.626261180689
 31
0.0
  0
LINE
  5
510F9
  8
0
  6
BYBLOCK
 62
     0
 10
253885.89213814811
 20
23823.626261180689
 30
0.0
 11
254035.89213814811
 21
23848.626261180681
 31
0.0
  0
LINE
  5
510FA
  8
0
  6
BYBLOCK
 62
     0
 10
253885.89213814811
 20
23823.626261180689
 30
0.0
 11
254035.89213814811
 21
23823.626261180689
 31
0.0
  0
LINE
  5
510FB
  8
0
  6
BYBLOCK
 62
     0
 10
255295.89213814799
 20
23848.626261180681
 30
0.0
 11
255445.89213814799
 21
23823.626261180689
 31
0.0
  0
LINE
  5
510FC
  8
0
  6
BYBLOCK
 62
     0
 10
255445.89213814799
 20
23823.626261180689
 30
0.0
 11
255295.89213814799
 21
23798.626261180689
 31
0.0
  0
LINE
  5
510FD
  8
0
  6
BYBLOCK
 62
     0
 10
255445.89213814799
 20
23823.626261180689
 30
0.0
 11
255295.89213814799
 21
23823.626261180689
 31
0.0
  0
TEXT
  5
510FE
  8
D-STR-DIM_寸法_
  6
CONTINUOUS
 10
252993.3075075011
 20
21990.858789258979
 30
0.0
 40
300.0
  1
350
 50
90.0
  7
ＭＳゴシック
1001
ACAD
1000
MTEXTBEGIN
1070
    73
1070
     1
1070
    44
1040
1.0
1070
    74
1070
     0
1000
MTEXTEND
  0
LINE
  5
510FF
  8
0
  6
BYBLOCK
 62
     0
 10
253068.3075075011
 20
21559.005997380769
 30
0.0
 11
253043.3075075011
 21
21409.005997380769
 31
0.0
  0
LINE
  5
51100
  8
0
  6
BYBLOCK
 62
     0
 10
253043.3075075011
 20
21409.005997380769
 30
0.0
 11
253018.3075075011
 21
21559.005997380769
 31
0.0
  0
LINE
  5
51101
  8
0
  6
BYBLOCK
 62
     0
 10
253043.3075075011
 20
21409.005997380769
 30
0.0
 11
253043.3075075011
 21
21559.005997380769
 31
0.0
  0
LINE
  5
51102
  8
0
  6
BYBLOCK
 62
     0
 10
253018.3075075011
 20
23009.005997380758
 30
0.0
 11
253043.3075075011
 21
23159.005997380769
 31
0.0
  0
LINE
  5
51103
  8
0
  6
BYBLOCK
 62
     0
 10
253043.3075075011
 20
23159.005997380769
 30
0.0
 11
253068.3075075011
 21
23009.005997380758
 31
0.0
  0
LINE
  5
51104
  8
0
  6
BYBLOCK
 62
     0
 10
253043.3075075011
 20
23159.005997380769
 30
0.0
 11
253043.3075075011
 21
23009.005997380758
 31
0.0
  0
VIEWPORT
  5
8DD7
 67
     1
  8
0
 62
     1
 10
145.34092712402341
 20
128.5301006484199
 30
0.0
 40
391.55112776119262
 41
275.58497167876732
 68
     1
 69
     1
1001
ACAD
1000
MVIEW
1002
{
1070
    16
1010
0.0
1020
0.0
1030
0.0
1010
0.0
1020
0.0
1030
1.0
1040
0.0
1040
275.58497167876732
1040
145.34092712402341
1040
128.5301006484199
1040
50.0
1040
0.0
1040
0.0
1070
     0
1070
   100
1070
     1
1070
     1
1070
     0
1070
     0
1070
     0
1070
     0
1040
0.0
1040
0.0
1040
0.0
1040
10.0
1040
10.0
1040
10.0
1040
10.0
1070
     0
1002
{
1002
}
1002
}
  0
VIEWPORT
  5
8DD9
 67
     1
  8
DEFPOINTS
 62
     1
 10
145.3409210443497
 20
101.7799164056778
 30
0.0
 40
232.5454736709595
 41
162.8478662490844
 68
     2
 69
     2
1001
ACAD
1000
MVIEW
1002
{
1070
    16
1010
0.0
1020
0.0
1030
0.0
1010
0.0
1020
0.0
1030
1.0
1040
0.0
1040
134188.5018008007
1040
94920.186445453393
1040
20557.892327797061
1040
50.0
1040
0.0
1040
0.0
1070
     0
1070
   100
1070
     1
1070
     0
1070
     0
1070
     0
1070
     0
1070
     1
1040
0.0
1040
0.0
1040
0.0
1040
10.0
1040
10.0
1040
10.0
1040
10.0
1070
     0
1002
{
1002
}
1002
}
  0
ENDSEC
  0
EOF
